  0
SECTION
  2
HEADER
  9
$ACADVER
  1
AC1015
  9
$ACADMAINTVER
 70
     6
  9
$DWGCODEPAGE
  3
ANSI_1254
  9
$INSBASE
 10
0.0
 20
0.0
 30
0.0
  9
$EXTMIN
 10
0.0
 20
0.0
 30
0.0
  9
$EXTMAX
 10
279.4
 20
215.9
 30
0.0
  9
$LIMMIN
 10
0.0
 20
0.0
  9
$LIMMAX
 10
279.4
 20
215.9
  9
$ORTHOMODE
 70
     0
  9
$REGENMODE
 70
     1
  9
$FILLMODE
 70
     1
  9
$QTEXTMODE
 70
     0
  9
$MIRRTEXT
 70
     1
  9
$LTSCALE
 40
1.0
  9
$ATTMODE
 70
     1
  9
$TEXTSIZE
 40
3.5
  9
$TRACEWID
 40
1.0
  9
$TEXTSTYLE
  7
Standard
  9
$CLAYER
  8
0
  9
$CELTYPE
  6
ByLayer
  9
$CECOLOR
 62
   256
  9
$CELTSCALE
 40
1.0
  9
$DISPSILH
 70
     0
  9
$DIMSCALE
 40
1.0
  9
$DIMASZ
 40
3.5
  9
$DIMEXO
 40
1.0
  9
$DIMDLI
 40
3.75
  9
$DIMRND
 40
0.0
  9
$DIMDLE
 40
0.0
  9
$DIMEXE
 40
1.0
  9
$DIMTP
 40
0.0
  9
$DIMTM
 40
0.0
  9
$DIMTXT
 40
3.5
  9
$DIMCEN
 40
2.5
  9
$DIMTSZ
 40
0.0
  9
$DIMTOL
 70
     0
  9
$DIMLIM
 70
     0
  9
$DIMTIH
 70
     1
  9
$DIMTOH
 70
     1
  9
$DIMSE1
 70
     0
  9
$DIMSE2
 70
     0
  9
$DIMTAD
 70
     1
  9
$DIMZIN
 70
     0
  9
$DIMBLK
  1

  9
$DIMASO
 70
     1
  9
$DIMSHO
 70
     1
  9
$DIMPOST
  1

  9
$DIMAPOST
  1

  9
$DIMALT
 70
     0
  9
$DIMALTD
 70
     3
  9
$DIMALTF
 40
0.0393700787
  9
$DIMLFAC
 40
1.0
  9
$DIMTOFL
 70
     1
  9
$DIMTVP
 40
0.0
  9
$DIMTIX
 70
     0
  9
$DIMSOXD
 70
     0
  9
$DIMSAH
 70
     0
  9
$DIMBLK1
  1

  9
$DIMBLK2
  1

  9
$DIMSTYLE
  2
ISO-25
  9
$DIMCLRD
 70
     0
  9
$DIMCLRE
 70
     0
  9
$DIMCLRT
 70
     0
  9
$DIMTFAC
 40
1.0
  9
$DIMGAP
 40
1.524
  9
$DIMJUST
 70
     0
  9
$DIMSD1
 70
     0
  9
$DIMSD2
 70
     0
  9
$DIMTOLJ
 70
     0
  9
$DIMTZIN
 70
     0
  9
$DIMALTZ
 70
     0
  9
$DIMALTTZ
 70
     0
  9
$DIMUPT
 70
     0
  9
$DIMDEC
 70
     2
  9
$DIMTDEC
 70
     2
  9
$DIMALTU
 70
     2
  9
$DIMALTTD
 70
     3
  9
$DIMTXSTY
  7
Standard
  9
$DIMAUNIT
 70
     0
  9
$DIMADEC
 70
     2
  9
$DIMALTRND
 40
0.0
  9
$DIMAZIN
 70
     0
  9
$DIMDSEP
 70
    44
  9
$DIMATFIT
 70
     3
  9
$DIMFRAC
 70
     0
  9
$DIMLDRBLK
  1

  9
$DIMLUNIT
 70
     2
  9
$DIMLWD
 70
    -2
  9
$DIMLWE
 70
    -2
  9
$DIMTMOVE
 70
     0
  9
$LUNITS
 70
     2
  9
$LUPREC
 70
     2
  9
$SKETCHINC
 40
1.0
  9
$FILLETRAD
 40
10.0
  9
$AUNITS
 70
     0
  9
$AUPREC
 70
     2
  9
$MENU
  1
.
  9
$ELEVATION
 40
0.0
  9
$PELEVATION
 40
0.0
  9
$THICKNESS
 40
0.0
  9
$LIMCHECK
 70
     0
  9
$CHAMFERA
 40
0.0
  9
$CHAMFERB
 40
0.0
  9
$CHAMFERC
 40
0.0
  9
$CHAMFERD
 40
0.0
  9
$SKPOLY
 70
     0
  9
$TDCREATE
 40
2459741.61443713
  9
$TDUCREATE
 40
2459741.48943713
  9
$TDUPDATE
 40
2459741.614437338
  9
$TDUUPDATE
 40
2459741.489437338
  9
$TDINDWG
 40
0.0000000116
  9
$TDUSRTIMER
 40
0.0000000116
  9
$USRTIMER
 70
     1
  9
$ANGBASE
 50
0.0
  9
$ANGDIR
 70
     0
  9
$PDMODE
 70
     0
  9
$PDSIZE
 40
-1.0
  9
$PLINEWID
 40
0.0
  9
$SPLFRAME
 70
     0
  9
$SPLINETYPE
 70
     6
  9
$SPLINESEGS
 70
     8
  9
$HANDSEED
  5
13C
  9
$SURFTAB1
 70
     6
  9
$SURFTAB2
 70
     6
  9
$SURFTYPE
 70
     6
  9
$SURFU
 70
     6
  9
$SURFV
 70
     6
  9
$UCSBASE
  2

  9
$UCSNAME
  2

  9
$UCSORG
 10
0.0
 20
0.0
 30
0.0
  9
$UCSXDIR
 10
1.0
 20
0.0
 30
0.0
  9
$UCSYDIR
 10
0.0
 20
1.0
 30
0.0
  9
$UCSORTHOREF
  2

  9
$UCSORTHOVIEW
 70
     0
  9
$UCSORGTOP
 10
0.0
 20
0.0
 30
0.0
  9
$UCSORGBOTTOM
 10
0.0
 20
0.0
 30
0.0
  9
$UCSORGLEFT
 10
0.0
 20
0.0
 30
0.0
  9
$UCSORGRIGHT
 10
0.0
 20
0.0
 30
0.0
  9
$UCSORGFRONT
 10
0.0
 20
0.0
 30
0.0
  9
$UCSORGBACK
 10
0.0
 20
0.0
 30
0.0
  9
$PUCSBASE
  2

  9
$PUCSNAME
  2

  9
$PUCSORG
 10
0.0
 20
0.0
 30
0.0
  9
$PUCSXDIR
 10
1.0
 20
0.0
 30
0.0
  9
$PUCSYDIR
 10
0.0
 20
1.0
 30
0.0
  9
$PUCSORTHOREF
  2

  9
$PUCSORTHOVIEW
 70
     0
  9
$PUCSORGTOP
 10
0.0
 20
0.0
 30
0.0
  9
$PUCSORGBOTTOM
 10
0.0
 20
0.0
 30
0.0
  9
$PUCSORGLEFT
 10
0.0
 20
0.0
 30
0.0
  9
$PUCSORGRIGHT
 10
0.0
 20
0.0
 30
0.0
  9
$PUCSORGFRONT
 10
0.0
 20
0.0
 30
0.0
  9
$PUCSORGBACK
 10
0.0
 20
0.0
 30
0.0
  9
$USERI1
 70
     0
  9
$USERI2
 70
     0
  9
$USERI3
 70
     0
  9
$USERI4
 70
     0
  9
$USERI5
 70
     0
  9
$USERR1
 40
0.0
  9
$USERR2
 40
0.0
  9
$USERR3
 40
0.0
  9
$USERR4
 40
0.0
  9
$USERR5
 40
0.0
  9
$WORLDVIEW
 70
     1
  9
$SHADEDGE
 70
     3
  9
$SHADEDIF
 70
    70
  9
$TILEMODE
 70
     1
  9
$MAXACTVP
 70
    64
  9
$PINSBASE
 10
0.0
 20
0.0
 30
0.0
  9
$PLIMCHECK
 70
     0
  9
$PEXTMIN
 10
1.0000000000E+20
 20
1.0000000000E+20
 30
1.0000000000E+20
  9
$PEXTMAX
 10
-1.0000000000E+20
 20
-1.0000000000E+20
 30
-1.0000000000E+20
  9
$PLIMMIN
 10
0.0
 20
0.0
  9
$PLIMMAX
 10
420.0
 20
297.0
  9
$UNITMODE
 70
     0
  9
$VISRETAIN
 70
     1
  9
$PLINEGEN
 70
     0
  9
$PSLTSCALE
 70
     1
  9
$TREEDEPTH
 70
  3020
  9
$CMLSTYLE
  2
Standard
  9
$CMLJUST
 70
     0
  9
$CMLSCALE
 40
20.0
  9
$PROXYGRAPHICS
 70
     1
  9
$MEASUREMENT
 70
     1
  9
$CELWEIGHT
370
    -1
  9
$ENDCAPS
280
     0
  9
$JOINSTYLE
280
     0
  9
$LWDISPLAY
290
     1
  9
$INSUNITS
 70
     4
  9
$HYPERLINKBASE
  1

  9
$STYLESHEET
  1

  9
$XEDIT
290
     1
  9
$CEPSNTYPE
380
     0
  9
$PSTYLEMODE
290
     1
  9
$FINGERPRINTGUID
  2
{0ff12385-8c80-4519-aff2-626be9f89ab2}
  9
$VERSIONGUID
  2
{FAEB1C32-E019-11D5-929B-00C0DF256EC4}
  9
$EXTNAMES
290
     1
  9
$PSVPSCALE
 40
0.0
  9
$OLESTARTUP
290
     0
  0
ENDSEC
  0
SECTION
  2
CLASSES
  0
CLASS
  1
ACDBDICTIONARYWDFLT
  2
AcDbDictionaryWithDefault
  3
ObjectDBX Classes
 90
        0
280
     0
281
     0
  0
CLASS
  1
VISUALSTYLE
  2
AcDbVisualStyle
  3
ObjectDBX Classes
 90
     4095
280
     0
281
     0
  0
CLASS
  1
MATERIAL
  2
AcDbMaterial
  3
ObjectDBX Classes
 90
     1153
280
     0
281
     0
  0
CLASS
  1
SCALE
  2
AcDbScale
  3
ObjectDBX Classes
 90
     1153
280
     0
281
     0
  0
CLASS
  1
TABLESTYLE
  2
AcDbTableStyle
  3
ObjectDBX Classes
 90
     4095
280
     0
281
     0
  0
CLASS
  1
MLEADERSTYLE
  2
AcDbMLeaderStyle
  3
ACDB_MLEADERSTYLE_CLASS
 90
     4095
280
     0
281
     0
  0
CLASS
  1
SUN
  2
AcDbSun
  3
SCENEOE
 90
     1153
280
     0
281
     0
  0
CLASS
  1
ACDBPLACEHOLDER
  2
AcDbPlaceHolder
  3
ObjectDBX Classes
 90
        0
280
     0
281
     0
  0
CLASS
  1
LAYOUT
  2
AcDbLayout
  3
ObjectDBX Classes
 90
        0
280
     0
281
     0
  0
ENDSEC
  0
SECTION
  2
TABLES
  0
TABLE
  2
VPORT
  5
8
330
0
100
AcDbSymbolTable
 70
     1
  0
VPORT
  5
29
330
8
100
AcDbSymbolTableRecord
100
AcDbViewportTableRecord
  2
*Active
 70
     0
 10
0.0
 20
0.0
 11
1.0
 21
1.0
 12
139.7
 22
107.95
 13
0.0
 23
0.0
 14
10.0
 24
10.0
 15
10.0
 25
10.0
 16
0.0
 26
0.0
 36
1.0
 17
0.0
 27
0.0
 37
0.0
 40
215.9
 41
1.2941176471
 42
50.0
 43
0.0
 44
0.0
 50
0.0
 51
0.0
 71
     0
 72
  2000
 73
     1
 74
     3
 75
     0
 76
     0
 77
     0
 78
     0
281
     0
 65
     1
110
0.0
120
0.0
130
0.0
111
1.0
121
0.0
131
0.0
112
0.0
122
1.0
132
0.0
 79
     0
146
0.0
  0
ENDTAB
  0
TABLE
  2
LTYPE
  5
5
330
0
100
AcDbSymbolTable
 70
     6
  0
LTYPE
  5
14
330
5
100
AcDbSymbolTableRecord
100
AcDbLinetypeTableRecord
  2
ByBlock
 70
     0
  3

 72
    65
 73
     0
 40
0.0
  0
LTYPE
  5
15
330
5
100
AcDbSymbolTableRecord
100
AcDbLinetypeTableRecord
  2
ByLayer
 70
     0
  3

 72
    65
 73
     0
 40
0.0
  0
LTYPE
  5
16
330
5
100
AcDbSymbolTableRecord
100
AcDbLinetypeTableRecord
  2
Continuous
 70
     0
  3
Solid line
 72
    65
 73
     0
 40
0.0
  0
LTYPE
  5
6E
330
5
100
AcDbSymbolTableRecord
100
AcDbLinetypeTableRecord
  2
HIDDEN
 70
     0
  3
Hidden __ __ __ __ __ __ __ __ __ __ __ __ __ __
 72
    65
 73
     2
 40
1.905
 49
1.27
 74
     0
 49
-0.635
 74
     0
  0
LTYPE
  5
6F
330
5
100
AcDbSymbolTableRecord
100
AcDbLinetypeTableRecord
  2
PHANTOM
 70
     0
  3
Phantom ______  __  __  ______  __  __  ______
 72
    65
 73
     6
 40
12.7
 49
6.35
 74
     0
 49
-1.27
 74
     0
 49
1.27
 74
     0
 49
-1.27
 74
     0
 49
1.27
 74
     0
 49
-1.27
 74
     0
  0
LTYPE
  5
70
330
5
100
AcDbSymbolTableRecord
100
AcDbLinetypeTableRecord
  2
CENTER
 70
     0
  3
Center ____ _ ____ _ ____ _ ____ _ ____ _ ____
 72
    65
 73
     4
 40
10.16
 49
6.35
 74
     0
 49
-1.27
 74
     0
 49
1.27
 74
     0
 49
-1.27
 74
     0
  0
LTYPE
  5
71
330
5
100
AcDbSymbolTableRecord
100
AcDbLinetypeTableRecord
  2
CENTERX2
 70
     0
  3
Center (2x) ________  __  ________  __  _____
 72
    65
 73
     4
 40
20.32
 49
12.7
 74
     0
 49
-2.54
 74
     0
 49
2.54
 74
     0
 49
-2.54
 74
     0
  0
LTYPE
  5
72
330
5
100
AcDbSymbolTableRecord
100
AcDbLinetypeTableRecord
  2
DOT2
 70
     0
  3
Dot (.5x) ........................................
 72
    65
 73
     2
 40
0.635
 49
0.0
 74
     0
 49
-0.635
 74
     0
  0
ENDTAB
  0
TABLE
  2
LAYER
  5
2
330
0
100
AcDbSymbolTable
 70
    17
  0
LAYER
  5
10
330
2
100
AcDbSymbolTableRecord
100
AcDbLayerTableRecord
  2
0
 70
     0
 62
     7
  6
Continuous
370
    -3
390
F
  0
LAYER
  5
73
330
2
100
AcDbSymbolTableRecord
100
AcDbLayerTableRecord
  2
FORMAT
 70
     0
 62
     7
  6
Continuous
370
    -3
390
F
  0
LAYER
  5
74
330
2
100
AcDbSymbolTableRecord
100
AcDbLayerTableRecord
  2
YARDIMCI_GEOMETRI
 70
     0
 62
    -6
  6
Continuous
290
     0
370
    -3
390
F
  0
LAYER
  5
75
330
2
100
AcDbSymbolTableRecord
100
AcDbLayerTableRecord
  2
SAYFA_CERCEVESI
 70
     0
 62
     7
  6
Continuous
370
    25
390
F
  0
LAYER
  5
76
330
2
100
AcDbSymbolTableRecord
100
AcDbLayerTableRecord
  2
ANTET
 70
     0
 62
     7
  6
Continuous
370
    -3
390
F
  0
LAYER
  5
77
330
2
100
AcDbSymbolTableRecord
100
AcDbLayerTableRecord
  2
OLCU
 70
     0
 62
   150
  6
Continuous
370
    -3
390
F
  0
LAYER
  5
78
330
2
100
AcDbSymbolTableRecord
100
AcDbLayerTableRecord
  2
METIN
 70
     0
 62
    96
  6
Continuous
370
    -3
390
F
  0
LAYER
  5
79
330
2
100
AcDbSymbolTableRecord
100
AcDbLayerTableRecord
  2
BALON
 70
     0
 62
     5
  6
Continuous
370
    -3
390
F
  0
LAYER
  5
7A
330
2
100
AcDbSymbolTableRecord
100
AcDbLayerTableRecord
  2
VURGU
 70
     0
 62
     7
  6
Continuous
370
    -3
390
F
  0
LAYER
  5
7B
330
2
100
AcDbSymbolTableRecord
100
AcDbLayerTableRecord
  2
SILIK
 70
     0
 62
     7
  6
Continuous
370
    -3
390
F
  0
LAYER
  5
7C
330
2
100
AcDbSymbolTableRecord
100
AcDbLayerTableRecord
  2
MODEL
 70
     0
 62
     7
  6
Continuous
370
    -3
390
F
  0
LAYER
  5
7D
330
2
100
AcDbSymbolTableRecord
100
AcDbLayerTableRecord
  2
DETAYLANDıRMA
 70
     0
 62
   190
  6
Continuous
370
    -3
390
F
  0
LAYER
  5
7E
330
2
100
AcDbSymbolTableRecord
100
AcDbLayerTableRecord
  2
TOLERANS
 70
     0
 62
   230
  6
Continuous
370
    -3
390
F
  0
LAYER
  5
7F
330
2
100
AcDbSymbolTableRecord
100
AcDbLayerTableRecord
  2
MERKEZ_CIZGILERI
 70
     0
 62
    30
  6
Continuous
370
    -3
390
F
  0
LAYER
  5
80
330
2
100
AcDbSymbolTableRecord
100
AcDbLayerTableRecord
  2
KESIT-DETAY_CIZGILERI
 70
     0
 62
     7
  6
Continuous
370
    -3
390
F
  0
LAYER
  5
81
330
2
100
AcDbSymbolTableRecord
100
AcDbLayerTableRecord
  2
\U+041E\U+0421\U+0415\U+0412\U+042B\U+0415
 70
     0
 62
     7
  6
Continuous
370
    -3
390
F
  0
LAYER
  5
82
330
2
100
AcDbSymbolTableRecord
100
AcDbLayerTableRecord
  2
\U+0412\U+041E\U+0414\U+042F\U+041D\U+042B\U+0415_\U+0417\U+041D\U+0410\U+041A\U+0418
 70
     0
 62
    11
  6
Continuous
370
    -3
390
F
  0
ENDTAB
  0
TABLE
  2
STYLE
  5
3
330
0
100
AcDbSymbolTable
 70
     1
  0
STYLE
  5
11
330
3
100
AcDbSymbolTableRecord
100
AcDbTextStyleTableRecord
  2
Standard
 70
     0
 40
0.0
 41
1.0
 50
0.0
 71
     0
 42
3.5
  3
txt
  4

  0
ENDTAB
  0
TABLE
  2
VIEW
  5
6
330
0
100
AcDbSymbolTable
 70
     0
  0
ENDTAB
  0
TABLE
  2
UCS
  5
7
330
0
100
AcDbSymbolTable
 70
     0
  0
ENDTAB
  0
TABLE
  2
APPID
  5
9
330
0
100
AcDbSymbolTable
 70
     1
  0
APPID
  5
12
330
9
100
AcDbSymbolTableRecord
100
AcDbRegAppTableRecord
  2
ACAD
 70
     0
  0
ENDTAB
  0
TABLE
  2
DIMSTYLE
  5
A
330
0
100
AcDbSymbolTable
 70
     1
100
AcDbDimStyleTable
  0
DIMSTYLE
105
27
330
A
100
AcDbSymbolTableRecord
100
AcDbDimStyleTableRecord
  2
ISO-25
 70
     0
 41
2.5
 42
0.625
 43
3.75
 44
1.25
 73
     0
 74
     0
 77
     1
 78
     8
140
2.5
141
2.5
143
0.0393700787
147
0.625
171
     3
172
     1
178
     0
271
     2
272
     2
274
     3
278
    44
283
     0
284
     8
340
11
  0
ENDTAB
  0
TABLE
  2
BLOCK_RECORD
  5
1
330
0
100
AcDbSymbolTable
 70
     5
  0
BLOCK_RECORD
  5
1F
330
1
100
AcDbSymbolTableRecord
100
AcDbBlockTableRecord
  2
*Model_Space
340
22
  0
BLOCK_RECORD
  5
1B
330
1
100
AcDbSymbolTableRecord
100
AcDbBlockTableRecord
  2
*Paper_Space
340
1E
  0
BLOCK_RECORD
  5
23
330
1
100
AcDbSymbolTableRecord
100
AcDbBlockTableRecord
  2
*Paper_Space0
340
26
  0
BLOCK_RECORD
  5
C4
330
1
100
AcDbSymbolTableRecord
100
AcDbBlockTableRecord
  2
SW_CENTERMARKSYMBOL_0
340
0
102
{BLKREFS
331
CF
102
}
  0
BLOCK_RECORD
  5
EF
330
1
100
AcDbSymbolTableRecord
100
AcDbBlockTableRecord
  2
SW_CENTERMARKSYMBOL_1
340
0
102
{BLKREFS
331
FA
102
}
  0
BLOCK_RECORD
  5
FB
330
1
100
AcDbSymbolTableRecord
100
AcDbBlockTableRecord
  2
SW_CENTERMARKSYMBOL_2
340
0
102
{BLKREFS
331
106
102
}
  0
BLOCK_RECORD
  5
107
330
1
100
AcDbSymbolTableRecord
100
AcDbBlockTableRecord
  2
SW_CENTERMARKSYMBOL_3
340
0
102
{BLKREFS
331
112
102
}
  0
ENDTAB
  0
ENDSEC
  0
SECTION
  2
BLOCKS
  0
BLOCK
  5
20
330
1F
100
AcDbEntity
  8
0
100
AcDbBlockBegin
  2
*Model_Space
 70
     0
 10
0.0
 20
0.0
 30
0.0
  3
*Model_Space
  1

  0
ENDBLK
  5
21
330
1F
100
AcDbEntity
  8
0
100
AcDbBlockEnd
  0
BLOCK
  5
1C
330
1B
100
AcDbEntity
 67
     1
  8
0
100
AcDbBlockBegin
  2
*Paper_Space
 70
     0
 10
0.0
 20
0.0
 30
0.0
  3
*Paper_Space
  1

  0
ENDBLK
  5
1D
330
1B
100
AcDbEntity
 67
     1
  8
0
100
AcDbBlockEnd
  0
BLOCK
  5
24
330
23
100
AcDbEntity
  8
0
100
AcDbBlockBegin
  2
*Paper_Space0
 70
     0
 10
0.0
 20
0.0
 30
0.0
  3
*Paper_Space0
  1

  0
ENDBLK
  5
25
330
23
100
AcDbEntity
  8
0
100
AcDbBlockEnd
  0
BLOCK
  5
C5
330
C4
100
AcDbEntity
  8
0
100
AcDbBlockBegin
  2
SW_CENTERMARKSYMBOL_0
 70
     0
 10
0.0
 20
0.0
 30
0.0
  3
SW_CENTERMARKSYMBOL_0
  1

  0
LINE
  5
C7
330
C4
100
AcDbEntity
  8
FORMAT
 62
     0
100
AcDbLine
 10
0.0
 20
0.0
 30
0.0
 11
0.0
 21
2.5
 31
0.0
  0
LINE
  5
C8
330
C4
100
AcDbEntity
  8
FORMAT
 62
     0
100
AcDbLine
 10
0.0
 20
0.0
 30
0.0
 11
-2.5
 21
0.0
 31
0.0
  0
LINE
  5
C9
330
C4
100
AcDbEntity
  8
FORMAT
 62
     0
100
AcDbLine
 10
0.0
 20
0.0
 30
0.0
 11
0.0
 21
-2.5
 31
0.0
  0
LINE
  5
CA
330
C4
100
AcDbEntity
  8
FORMAT
 62
     0
100
AcDbLine
 10
0.0
 20
0.0
 30
0.0
 11
2.5
 21
0.0
 31
0.0
  0
LINE
  5
CB
330
C4
100
AcDbEntity
  8
FORMAT
 62
     0
100
AcDbLine
 10
0.0
 20
5.0
 30
0.0
 11
0.0
 21
28.2
 31
0.0
  0
LINE
  5
CC
330
C4
100
AcDbEntity
  8
FORMAT
 62
     0
100
AcDbLine
 10
-5.0
 20
0.0
 30
0.0
 11
-28.2
 21
0.0
 31
0.0
  0
LINE
  5
CD
330
C4
100
AcDbEntity
  8
FORMAT
 62
     0
100
AcDbLine
 10
0.0
 20
-5.0
 30
0.0
 11
0.0
 21
-28.2
 31
0.0
  0
LINE
  5
CE
330
C4
100
AcDbEntity
  8
FORMAT
 62
     0
100
AcDbLine
 10
5.0
 20
0.0
 30
0.0
 11
28.2
 21
0.0
 31
0.0
  0
ENDBLK
  5
C6
330
C4
100
AcDbEntity
  8
0
100
AcDbBlockEnd
  0
BLOCK
  5
F0
330
EF
100
AcDbEntity
  8
0
100
AcDbBlockBegin
  2
SW_CENTERMARKSYMBOL_1
 70
     0
 10
0.0
 20
0.0
 30
0.0
  3
SW_CENTERMARKSYMBOL_1
  1

  0
LINE
  5
F2
330
EF
100
AcDbEntity
  8
FORMAT
 62
     0
100
AcDbLine
 10
0.0
 20
0.0
 30
0.0
 11
0.0
 21
2.5
 31
0.0
  0
LINE
  5
F3
330
EF
100
AcDbEntity
  8
FORMAT
 62
     0
100
AcDbLine
 10
0.0
 20
0.0
 30
0.0
 11
-2.5
 21
0.0
 31
0.0
  0
LINE
  5
F4
330
EF
100
AcDbEntity
  8
FORMAT
 62
     0
100
AcDbLine
 10
0.0
 20
0.0
 30
0.0
 11
0.0
 21
-2.5
 31
0.0
  0
LINE
  5
F5
330
EF
100
AcDbEntity
  8
FORMAT
 62
     0
100
AcDbLine
 10
0.0
 20
0.0
 30
0.0
 11
2.5
 21
0.0
 31
0.0
  0
LINE
  5
F6
330
EF
100
AcDbEntity
  8
FORMAT
 62
     0
100
AcDbLine
 10
0.0
 20
5.0
 30
0.0
 11
0.0
 21
34.0
 31
0.0
  0
LINE
  5
F7
330
EF
100
AcDbEntity
  8
FORMAT
 62
     0
100
AcDbLine
 10
-5.0
 20
0.0
 30
0.0
 11
-34.0
 21
0.0
 31
0.0
  0
LINE
  5
F8
330
EF
100
AcDbEntity
  8
FORMAT
 62
     0
100
AcDbLine
 10
0.0
 20
-5.0
 30
0.0
 11
0.0
 21
-34.0
 31
0.0
  0
LINE
  5
F9
330
EF
100
AcDbEntity
  8
FORMAT
 62
     0
100
AcDbLine
 10
5.0
 20
0.0
 30
0.0
 11
34.0
 21
0.0
 31
0.0
  0
ENDBLK
  5
F1
330
EF
100
AcDbEntity
  8
0
100
AcDbBlockEnd
  0
BLOCK
  5
FC
330
FB
100
AcDbEntity
  8
0
100
AcDbBlockBegin
  2
SW_CENTERMARKSYMBOL_2
 70
     0
 10
0.0
 20
0.0
 30
0.0
  3
SW_CENTERMARKSYMBOL_2
  1

  0
LINE
  5
FE
330
FB
100
AcDbEntity
  8
FORMAT
 62
     0
100
AcDbLine
 10
0.0
 20
0.0
 30
0.0
 11
0.0
 21
2.5
 31
0.0
  0
LINE
  5
FF
330
FB
100
AcDbEntity
  8
FORMAT
 62
     0
100
AcDbLine
 10
0.0
 20
0.0
 30
0.0
 11
-2.5
 21
0.0
 31
0.0
  0
LINE
  5
100
330
FB
100
AcDbEntity
  8
FORMAT
 62
     0
100
AcDbLine
 10
0.0
 20
0.0
 30
0.0
 11
0.0
 21
-2.5
 31
0.0
  0
LINE
  5
101
330
FB
100
AcDbEntity
  8
FORMAT
 62
     0
100
AcDbLine
 10
0.0
 20
0.0
 30
0.0
 11
2.5
 21
0.0
 31
0.0
  0
LINE
  5
102
330
FB
100
AcDbEntity
  8
FORMAT
 62
     0
100
AcDbLine
 10
0.0
 20
5.0
 30
0.0
 11
0.0
 21
9.5
 31
0.0
  0
LINE
  5
103
330
FB
100
AcDbEntity
  8
FORMAT
 62
     0
100
AcDbLine
 10
-5.0
 20
0.0
 30
0.0
 11
-9.5
 21
0.0
 31
0.0
  0
LINE
  5
104
330
FB
100
AcDbEntity
  8
FORMAT
 62
     0
100
AcDbLine
 10
0.0
 20
-5.0
 30
0.0
 11
0.0
 21
-9.5
 31
0.0
  0
LINE
  5
105
330
FB
100
AcDbEntity
  8
FORMAT
 62
     0
100
AcDbLine
 10
5.0
 20
0.0
 30
0.0
 11
9.5
 21
0.0
 31
0.0
  0
ENDBLK
  5
FD
330
FB
100
AcDbEntity
  8
0
100
AcDbBlockEnd
  0
BLOCK
  5
108
330
107
100
AcDbEntity
  8
0
100
AcDbBlockBegin
  2
SW_CENTERMARKSYMBOL_3
 70
     0
 10
0.0
 20
0.0
 30
0.0
  3
SW_CENTERMARKSYMBOL_3
  1

  0
LINE
  5
10A
330
107
100
AcDbEntity
  8
FORMAT
 62
     0
100
AcDbLine
 10
0.0
 20
0.0
 30
0.0
 11
0.0
 21
2.5
 31
0.0
  0
LINE
  5
10B
330
107
100
AcDbEntity
  8
FORMAT
 62
     0
100
AcDbLine
 10
0.0
 20
0.0
 30
0.0
 11
-2.5
 21
0.0
 31
0.0
  0
LINE
  5
10C
330
107
100
AcDbEntity
  8
FORMAT
 62
     0
100
AcDbLine
 10
0.0
 20
0.0
 30
0.0
 11
0.0
 21
-2.5
 31
0.0
  0
LINE
  5
10D
330
107
100
AcDbEntity
  8
FORMAT
 62
     0
100
AcDbLine
 10
0.0
 20
0.0
 30
0.0
 11
2.5
 21
0.0
 31
0.0
  0
LINE
  5
10E
330
107
100
AcDbEntity
  8
FORMAT
 62
     0
100
AcDbLine
 10
0.0
 20
5.0
 30
0.0
 11
0.0
 21
9.5
 31
0.0
  0
LINE
  5
10F
330
107
100
AcDbEntity
  8
FORMAT
 62
     0
100
AcDbLine
 10
-5.0
 20
0.0
 30
0.0
 11
-9.5
 21
0.0
 31
0.0
  0
LINE
  5
110
330
107
100
AcDbEntity
  8
FORMAT
 62
     0
100
AcDbLine
 10
0.0
 20
-5.0
 30
0.0
 11
0.0
 21
-9.5
 31
0.0
  0
LINE
  5
111
330
107
100
AcDbEntity
  8
FORMAT
 62
     0
100
AcDbLine
 10
5.0
 20
0.0
 30
0.0
 11
9.5
 21
0.0
 31
0.0
  0
ENDBLK
  5
109
330
107
100
AcDbEntity
  8
0
100
AcDbBlockEnd
  0
ENDSEC
  0
SECTION
  2
ENTITIES
  0
LINE
  5
83
330
1F
100
AcDbEntity
  8
0
  6
Continuous
 62
     7
370
    25
100
AcDbLine
 10
171.1807140607
 20
23.2384285714
 30
0.0
 11
211.1807140607
 21
23.2384285714
 31
0.0
  0
LINE
  5
84
330
1F
100
AcDbEntity
  8
0
  6
Continuous
 62
     7
370
    25
100
AcDbLine
 10
71.1807140607
 20
23.2384285714
 30
0.0
 11
111.1807140607
 21
23.2384285714
 31
0.0
  0
LINE
  5
85
330
1F
100
AcDbEntity
  8
0
  6
Continuous
 62
     7
370
    25
100
AcDbLine
 10
74.2038177965
 20
127.2384285714
 30
0.0
 11
71.1807140607
 21
127.2384285714
 31
0.0
  0
LINE
  5
86
330
1F
100
AcDbEntity
  8
0
  6
Continuous
 62
     7
370
    25
100
AcDbLine
 10
109.7088289137
 20
127.2384285714
 30
0.0
 11
88.1787431915
 21
127.2384285714
 31
0.0
  0
LINE
  5
87
330
1F
100
AcDbEntity
  8
0
  6
Continuous
 62
     7
370
    25
100
AcDbLine
 10
194.2038177965
 20
127.2384285714
 30
0.0
 11
172.665058376
 21
127.2384285714
 31
0.0
  0
LINE
  5
88
330
1F
100
AcDbEntity
  8
0
  6
Continuous
 62
     7
370
    25
100
AcDbLine
 10
211.1807140607
 20
127.2384285714
 30
0.0
 11
208.1787431915
 21
127.2384285714
 31
0.0
  0
LINE
  5
89
330
1F
100
AcDbEntity
  8
0
  6
Continuous
 62
     7
370
    25
100
AcDbLine
 10
109.6807140607
 20
195.2384285714
 30
0.0
 11
109.6807140607
 21
127.2213713104
 31
0.0
  0
LINE
  5
8A
330
1F
100
AcDbEntity
  8
0
  6
Continuous
 62
     7
370
    25
100
AcDbLine
 10
172.6807140607
 20
127.2289402271
 30
0.0
 11
172.6807140607
 21
195.2384285714
 31
0.0
  0
LINE
  5
8B
330
1F
100
AcDbEntity
  8
0
  6
Continuous
 62
     7
370
    25
100
AcDbLine
 10
88.1807140607
 20
127.2381665394
 30
0.0
 11
88.1807140607
 21
142.2384285714
 31
0.0
  0
LINE
  5
8C
330
1F
100
AcDbEntity
  8
0
  6
Continuous
 62
     7
370
    25
100
AcDbLine
 10
74.1807140607
 20
142.2384285714
 30
0.0
 11
74.1807140607
 21
127.2353276975
 31
0.0
  0
LINE
  5
8D
330
1F
100
AcDbEntity
  8
0
  6
Continuous
 62
     7
370
    25
100
AcDbLine
 10
208.1807140607
 20
127.2381665394
 30
0.0
 11
208.1807140607
 21
142.2384285714
 31
0.0
  0
LINE
  5
8E
330
1F
100
AcDbEntity
  8
0
  6
Continuous
 62
     7
370
    25
100
AcDbLine
 10
194.1807140607
 20
142.2384285714
 30
0.0
 11
194.1807140607
 21
127.2353276975
 31
0.0
  0
LINE
  5
8F
330
1F
100
AcDbEntity
  8
0
  6
Continuous
 62
     7
370
    25
100
AcDbLine
 10
211.1807140607
 20
77.2384285714
 30
0.0
 11
71.1807140607
 21
77.2384285714
 31
0.0
  0
LINE
  5
90
330
1F
100
AcDbEntity
  8
0
  6
Continuous
 62
     7
370
    25
100
AcDbLine
 10
71.1807140607
 20
84.2384285714
 30
0.0
 11
71.1807140607
 21
77.2384285714
 31
0.0
  0
LINE
  5
91
330
1F
100
AcDbEntity
  8
0
  6
Continuous
 62
     7
370
    25
100
AcDbLine
 10
211.1807140607
 20
84.2384285714
 30
0.0
 11
71.1807140607
 21
84.2384285714
 31
0.0
  0
LINE
  5
92
330
1F
100
AcDbEntity
  8
0
  6
Continuous
 62
     7
370
    25
100
AcDbLine
 10
211.1807140607
 20
84.2384285714
 30
0.0
 11
211.1807140607
 21
77.2384285714
 31
0.0
  0
LINE
  5
93
330
1F
100
AcDbEntity
  8
0
  6
Continuous
 62
     7
370
    25
100
AcDbLine
 10
71.1807140607
 20
73.2384285714
 30
0.0
 11
71.1807140607
 21
66.2384285714
 31
0.0
  0
LINE
  5
94
330
1F
100
AcDbEntity
  8
0
  6
Continuous
 62
     7
370
    25
100
AcDbLine
 10
211.1807140607
 20
73.2384285714
 30
0.0
 11
71.1807140607
 21
73.2384285714
 31
0.0
  0
LINE
  5
95
330
1F
100
AcDbEntity
  8
0
  6
Continuous
 62
     7
370
    25
100
AcDbLine
 10
211.1807140607
 20
73.2384285714
 30
0.0
 11
211.1807140607
 21
66.2384285714
 31
0.0
  0
LINE
  5
96
330
1F
100
AcDbEntity
  8
0
  6
Continuous
 62
     7
370
    25
100
AcDbLine
 10
211.1807140607
 20
66.2384285714
 30
0.0
 11
71.1807140607
 21
66.2384285714
 31
0.0
  0
SPLINE
  5
97
330
1F
100
AcDbEntity
  8
0
  6
Continuous
 62
     7
370
    25
100
AcDbSpline
210
0.0
220
0.0
230
1.0
 70
     8
 71
     3
 72
    27
 73
    23
 74
     0
 42
0.00000001
 43
0.00000001
 40
0.0
 40
0.0
 40
0.0
 40
0.0
 40
0.0354895029045435
 40
0.087918253942631
 40
0.1418590558877755
 40
0.1944593714768299
 40
0.2485615818046596
 40
0.3015698132367647
 40
0.3561127439804795
 40
0.4091354514872941
 40
0.4637193176111186
 40
0.5163306863521621
 40
0.5704804411615504
 40
0.622898960659706
 40
0.6768201971695433
 40
0.7295621933400581
 40
0.7838134912551251
 40
0.8368924366278968
 40
0.8915191161820714
 40
0.9444251561254623
 40
0.9988896032637349
 40
1.0
 40
1.0
 40
1.0
 40
1.0
 10
194.2038177964936
 20
127.235325597712
 30
0.0
 10
194.2030812552977
 20
127.2354195099842
 30
0.0
 10
194.2012566195434
 20
127.2356521591428
 30
0.0
 10
194.4232187040401
 20
127.2060143478463
 30
0.0
 10
194.8304530345044
 20
127.1541715319449
 30
0.0
 10
195.4276188027278
 20
127.0838587937459
 30
0.0
 10
196.17974057346
 20
127.0050442691728
 30
0.0
 10
197.0830204049882
 20
126.9248332405637
 30
0.0
 10
198.0969197238447
 20
126.8536473083463
 30
0.0
 10
199.2093747856524
 20
126.7986163071072
 30
0.0
 10
200.365792040941
 20
126.767077077677
 30
0.0
 10
201.5532749478168
 20
126.7619685451184
 30
0.0
 10
202.714768893749
 20
126.7836864497181
 30
0.0
 10
203.8413692548336
 20
126.8299546576032
 30
0.0
 10
204.8838668850622
 20
126.89481781459
 30
0.0
 10
205.83309785555
 20
126.9722198214391
 30
0.0
 10
206.6475771236373
 20
127.052581764502
 30
0.0
 10
207.3143735705233
 20
127.1278272524395
 30
0.0
 10
207.808604761598
 20
127.1891919761079
 30
0.0
 10
208.094593902991
 20
127.226781123698
 30
0.0
 10
208.2121923049626
 20
127.2426393141912
 30
0.0
 10
208.1793984200297
 20
127.2382525721869
 30
0.0
 10
208.178743191508
 20
127.2381649241853
 30
0.0
  0
SPLINE
  5
98
330
1F
100
AcDbEntity
  8
0
  6
Continuous
 62
     7
370
    25
100
AcDbSpline
210
0.0
220
0.0
230
1.0
 70
     8
 71
     3
 72
    27
 73
    23
 74
     0
 42
0.00000001
 43
0.00000001
 40
0.0
 40
0.0
 40
0.0
 40
0.0
 40
0.0458645572452833
 40
0.0917314806490923
 40
0.1391654283056844
 40
0.1866053148444399
 40
0.2324002842496696
 40
0.2782000035945698
 40
0.3250558825940627
 40
0.3719148798526927
 40
0.4234536970739073
 40
0.4749937324978183
 40
0.5277419818242346
 40
0.5804884204945946
 40
0.6374224827683972
 40
0.6943508014090476
 40
0.7533016926550078
 40
0.8122441473240629
 40
0.8635465651269876
 40
0.9148450761461605
 40
0.9681033615113642
 40
1.0
 40
1.0
 40
1.0
 40
1.0
 10
141.1807140607425
 20
116.611729140757
 30
0.0
 10
140.4031580632022
 20
116.6246106838049
 30
0.0
 10
138.8480059539058
 20
116.6503744344613
 30
0.0
 10
136.50884836164
 20
116.8544743049601
 30
0.0
 10
134.183580271047
 20
117.1783683886054
 30
0.0
 10
131.9169881619395
 20
117.6176813289747
 30
0.0
 10
129.7464949704347
 20
118.1467933787859
 30
0.0
 10
127.6619693984095
 20
118.7497561178588
 30
0.0
 10
125.6475067968138
 20
119.4185631929391
 30
0.0
 10
123.6464978928711
 20
120.1615319584217
 30
0.0
 10
121.6910866329736
 20
120.9609728588298
 30
0.0
 10
119.7848731777517
 20
121.8070611065149
 30
0.0
 10
117.9994179575517
 20
122.6553110096744
 30
0.0
 10
116.3021762192957
 20
123.5088826505568
 30
0.0
 10
114.7314907028101
 20
124.3379239740949
 30
0.0
 10
113.2978896349522
 20
125.1262970382913
 30
0.0
 10
112.0659363760804
 20
125.8262190211132
 30
0.0
 10
111.1032471750309
 20
126.3878802154094
 30
0.0
 10
110.4028246667671
 20
126.8034416898843
 30
0.0
 10
109.9420889066637
 20
127.0803073844884
 30
0.0
 10
109.698624845423
 20
127.2274493560636
 30
0.0
 10
109.7060482974284
 20
127.2230269957228
 30
0.0
 10
109.7088289136775
 20
127.2213705039702
 30
0.0
  0
SPLINE
  5
99
330
1F
100
AcDbEntity
  8
0
  6
Continuous
 62
     7
370
    25
100
AcDbSpline
210
0.0
220
0.0
230
1.0
 70
     8
 71
     3
 72
    28
 73
    24
 74
     0
 42
0.00000001
 43
0.00000001
 40
0.0
 40
0.0
 40
0.0
 40
0.0
 40
0.0346355225616939
 40
0.0802524343062737
 40
0.1272548978682814
 40
0.1742599922861468
 40
0.2191027465799589
 40
0.2639483261477119
 40
0.3098575759833785
 40
0.3557697040397771
 40
0.4055026726134969
 40
0.4552383344889252
 40
0.5061038456750745
 40
0.55697011781673
 40
0.6130390351564079
 40
0.6691045936777447
 40
0.726894258293734
 40
0.7846738557607081
 40
0.8281924301551145
 40
0.8717066592843298
 40
0.9164302828570778
 40
0.9611503541450185
 40
0.9999999999999999
 40
0.9999999999999999
 40
0.9999999999999999
 40
0.9999999999999999
 10
172.6650583760058
 20
127.2289380182959
 30
0.0
 10
172.661716855502
 20
127.2268921235346
 30
0.0
 10
172.6539743664364
 20
127.2221516714556
 30
0.0
 10
172.4395003327584
 20
127.0925173127746
 30
0.0
 10
172.0507704085472
 20
126.85871097549
 30
0.0
 10
171.4894191514074
 20
126.5247136907985
 30
0.0
 10
170.7804990441274
 20
126.1084760134597
 30
0.0
 10
169.932543098922
 20
125.6192833337433
 30
0.0
 10
168.9371844698648
 20
125.0571400684845
 30
0.0
 10
167.7679695796283
 20
124.4143067509331
 30
0.0
 10
166.4267314301657
 20
123.7007685760229
 30
0.0
 10
164.8987685926244
 20
122.9213103867605
 30
0.0
 10
163.2231431693649
 20
122.1086329085952
 30
0.0
 10
161.3424091098339
 20
121.2514401445052
 30
0.0
 10
159.259742103436
 20
120.3740074116284
 30
0.0
 10
156.9445571990462
 20
119.4942373560815
 30
0.0
 10
154.4660473144726
 20
118.6696806481533
 30
0.0
 10
152.0476556499828
 20
117.9942715839036
 30
0.0
 10
149.7608615885273
 20
117.4758552707518
 30
0.0
 10
147.6224642694679
 20
117.0913069148149
 30
0.0
 10
145.4165687225703
 20
116.8098446095412
 30
0.0
 10
143.2560168265575
 20
116.6406023148715
 30
0.0
 10
141.8393090372182
 20
116.6208920097802
 30
0.0
 10
141.1807140607425
 20
116.611729140757
 30
0.0
  0
SPLINE
  5
9A
330
1F
100
AcDbEntity
  8
0
  6
Continuous
 62
     7
370
    25
100
AcDbSpline
210
0.0
220
0.0
230
1.0
 70
     8
 71
     3
 72
    27
 73
    23
 74
     0
 42
0.00000001
 43
0.00000001
 40
0.0
 40
0.0
 40
0.0
 40
0.0
 40
0.0354895029045436
 40
0.087918253942631
 40
0.1418590558877754
 40
0.1944593714768302
 40
0.2485615818046595
 40
0.3015698132367647
 40
0.3561127439804795
 40
0.4091354514872941
 40
0.4637193176111186
 40
0.5163306863521621
 40
0.5704804411615504
 40
0.622898960659706
 40
0.6768201971695434
 40
0.7295621933400581
 40
0.7838134912551249
 40
0.836892436627897
 40
0.8915191161820709
 40
0.9444251561254621
 40
0.9988896032637349
 40
1.0
 40
1.0
 40
1.0
 40
1.0
 10
74.2038177964936
 20
127.235325597712
 30
0.0
 10
74.20308125529768
 20
127.2354195099842
 30
0.0
 10
74.2012566195434
 20
127.2356521591428
 30
0.0
 10
74.42321870404007
 20
127.2060143478463
 30
0.0
 10
74.83045303450437
 20
127.1541715319449
 30
0.0
 10
75.42761880272775
 20
127.0838587937459
 30
0.0
 10
76.17974057346
 20
127.0050442691728
 30
0.0
 10
77.08302040498819
 20
126.9248332405637
 30
0.0
 10
78.09691972384472
 20
126.8536473083463
 30
0.0
 10
79.20937478565237
 20
126.7986163071072
 30
0.0
 10
80.36579204094093
 20
126.767077077677
 30
0.0
 10
81.55327494781677
 20
126.7619685451184
 30
0.0
 10
82.714768893749
 20
126.7836864497181
 30
0.0
 10
83.8413692548336
 20
126.8299546576031
 30
0.0
 10
84.88386688506213
 20
126.89481781459
 30
0.0
 10
85.83309785555
 20
126.9722198214391
 30
0.0
 10
86.64757712363732
 20
127.052581764502
 30
0.0
 10
87.31437357052336
 20
127.1278272524395
 30
0.0
 10
87.80860476159803
 20
127.1891919761079
 30
0.0
 10
88.09459390299098
 20
127.2267811236982
 30
0.0
 10
88.21219230496258
 20
127.2426393141907
 30
0.0
 10
88.17939842002976
 20
127.2382525721869
 30
0.0
 10
88.17874319150799
 20
127.2381649241853
 30
0.0
  0
LINE
  5
9B
330
1F
100
AcDbEntity
  8
0
  6
Continuous
 62
     7
370
    25
100
AcDbLine
 10
111.1807140607
 20
65.2384285714
 30
0.0
 11
171.1807140607
 21
65.2384285714
 31
0.0
  0
LINE
  5
9C
330
1F
100
AcDbEntity
  8
0
  6
Continuous
 62
     7
370
    25
100
AcDbLine
 10
111.1807140607
 20
23.2384285714
 30
0.0
 11
111.1807140607
 21
65.2384285714
 31
0.0
  0
LINE
  5
9D
330
1F
100
AcDbEntity
  8
0
  6
Continuous
 62
     7
370
    25
100
AcDbLine
 10
171.1807140607
 20
65.2384285714
 30
0.0
 11
171.1807140607
 21
23.2384285714
 31
0.0
  0
LINE
  5
9E
330
1F
100
AcDbEntity
  8
0
  6
Continuous
 62
     7
370
    25
100
AcDbLine
 10
71.1807140607
 20
66.2384285714
 30
0.0
 11
71.1807140607
 21
23.2384285714
 31
0.0
  0
LINE
  5
9F
330
1F
100
AcDbEntity
  8
0
  6
Continuous
 62
     7
370
    25
100
AcDbLine
 10
71.1807140607
 20
127.2384285714
 30
0.0
 11
71.1807140607
 21
84.2384285714
 31
0.0
  0
LINE
  5
A0
330
1F
100
AcDbEntity
  8
0
  6
Continuous
 62
     7
370
    25
100
AcDbLine
 10
211.1807140607
 20
66.2384285714
 30
0.0
 11
211.1807140607
 21
23.2384285714
 31
0.0
  0
LINE
  5
A1
330
1F
100
AcDbEntity
  8
0
  6
Continuous
 62
     7
370
    25
100
AcDbLine
 10
211.1807140607
 20
127.2384285714
 30
0.0
 11
211.1807140607
 21
84.2384285714
 31
0.0
  0
LINE
  5
A2
330
1F
100
AcDbEntity
  8
0
  6
Continuous
 62
     7
370
    25
100
AcDbLine
 10
71.1807140607
 20
77.2384285714
 30
0.0
 11
71.1807140607
 21
73.2384285714
 31
0.0
  0
LINE
  5
A3
330
1F
100
AcDbEntity
  8
0
  6
Continuous
 62
     7
370
    25
100
AcDbLine
 10
211.1807140607
 20
77.2384285714
 30
0.0
 11
211.1807140607
 21
73.2384285714
 31
0.0
  0
LINE
  5
A4
330
1F
100
AcDbEntity
  8
0
  6
Continuous
 62
     7
370
    25
100
AcDbLine
 10
141.1807140607
 20
195.2384285714
 30
0.0
 11
172.6807140607
 21
195.2384285714
 31
0.0
  0
LINE
  5
A5
330
1F
100
AcDbEntity
  8
0
  6
Continuous
 62
     7
370
    25
100
AcDbLine
 10
109.6807140607
 20
195.2384285714
 30
0.0
 11
141.1807140607
 21
195.2384285714
 31
0.0
  0
LINE
  5
A6
330
1F
100
AcDbEntity
  8
0
  6
Continuous
 62
     7
370
    25
100
AcDbLine
 10
88.1807140607
 20
142.2384285714
 30
0.0
 11
74.1807140607
 21
142.2384285714
 31
0.0
  0
LINE
  5
A7
330
1F
100
AcDbEntity
  8
0
  6
Continuous
 62
     7
370
    25
100
AcDbLine
 10
194.1807140607
 20
142.2384285714
 30
0.0
 11
208.1807140607
 21
142.2384285714
 31
0.0
  0
LINE
  5
A8
330
1F
100
AcDbEntity
  8
0
  6
Continuous
 62
     7
370
    25
100
AcDbLine
 10
342.6571990679
 20
126.7681583147
 30
0.0
 11
342.6571990679
 21
142.2384285714
 31
0.0
  0
LINE
  5
A9
330
1F
100
AcDbEntity
  8
0
  6
Continuous
 62
     7
370
    25
100
AcDbLine
 10
328.6571990679
 20
142.2384285714
 30
0.0
 11
328.6571990679
 21
126.7651206834
 31
0.0
  0
LINE
  5
AA
330
1F
100
AcDbEntity
  8
0
  6
Continuous
 62
     7
370
    25
100
AcDbLine
 10
304.1571990679
 20
195.2384285714
 30
0.0
 11
304.1571990679
 21
116.6189556517
 31
0.0
  0
LINE
  5
AB
330
1F
100
AcDbEntity
  8
0
  6
Continuous
 62
     7
370
    25
100
AcDbLine
 10
367.1571990679
 20
116.6117291408
 30
0.0
 11
367.1571990679
 21
195.2384285714
 31
0.0
  0
LINE
  5
AC
330
1F
100
AcDbEntity
  8
0
  6
Continuous
 62
     7
370
    25
100
AcDbLine
 10
386.8724311771
 20
84.2384285714
 30
0.0
 11
401.8724311771
 21
84.2384285714
 31
0.0
  0
LINE
  5
AD
330
1F
100
AcDbEntity
  8
0
  6
Continuous
 62
     7
370
    25
100
AcDbLine
 10
401.8724311771
 20
84.2384285714
 30
0.0
 11
401.8724311771
 21
77.2384285714
 31
0.0
  0
LINE
  5
AE
330
1F
100
AcDbEntity
  8
0
  6
Continuous
 62
     7
370
    25
100
AcDbLine
 10
401.8724311771
 20
77.2384285714
 30
0.0
 11
380.6127326539
 21
77.2384285714
 31
0.0
  0
ARC
  5
AF
330
1F
100
AcDbEntity
  8
0
  6
Continuous
 62
     7
370
    25
100
AcDbCircle
 10
335.6571990679
 20
75.2384285714
 30
0.0
 40
45.00000000000001
100
AcDbArc
 50
2.5473181826
 51
357.4526818174
  0
LINE
  5
B0
330
1F
100
AcDbEntity
  8
0
  6
Continuous
 62
     7
370
    25
100
AcDbLine
 10
380.6127326539
 20
73.2384285714
 30
0.0
 11
401.8724311771
 21
73.2384285714
 31
0.0
  0
LINE
  5
B1
330
1F
100
AcDbEntity
  8
0
  6
Continuous
 62
     7
370
    25
100
AcDbLine
 10
401.8724311771
 20
73.2384285714
 30
0.0
 11
401.8724311771
 21
66.2384285714
 31
0.0
  0
LINE
  5
B2
330
1F
100
AcDbEntity
  8
0
  6
Continuous
 62
     7
370
    25
100
AcDbLine
 10
401.8724311771
 20
66.2384285714
 30
0.0
 11
386.8724311771
 21
66.2384285714
 31
0.0
  0
ARC
  5
B3
330
1F
100
AcDbEntity
  8
0
  6
Continuous
 62
     7
370
    25
100
AcDbCircle
 10
335.6571990679
 20
75.2384285714
 30
0.0
 40
52.00000000000002
100
AcDbArc
 50
9.9667663002
 51
350.0332336998
  0
LINE
  5
B4
330
1F
100
AcDbEntity
  8
0
  6
Continuous
 62
     7
370
    25
100
AcDbLine
 10
342.6571990679
 20
142.2384285714
 30
0.0
 11
328.6571990679
 21
142.2384285714
 31
0.0
  0
LINE
  5
B5
330
1F
100
AcDbEntity
  8
0
  6
Continuous
 62
     7
370
    25
100
AcDbLine
 10
304.1571990679
 20
195.2384285714
 30
0.0
 11
367.1571990679
 21
195.2384285714
 31
0.0
  0
LINE
  5
B6
330
1F
100
AcDbEntity
  8
0
  6
Continuous
 62
     7
370
    25
100
AcDbLine
 10
71.1807140607
 20
260.4289473924
 30
0.0
 11
211.1807140607
 21
260.4289473924
 31
0.0
  0
LINE
  5
B7
330
1F
100
AcDbEntity
  8
0
  6
Continuous
 62
     7
370
    25
100
AcDbLine
 10
211.1807140607
 20
363.6441795017
 30
0.0
 11
71.1807140607
 21
363.6441795017
 31
0.0
  0
LINE
  5
B8
330
1F
100
AcDbEntity
  8
0
  6
Continuous
 62
     7
370
    25
100
AcDbLine
 10
211.1807140607
 20
363.6441795017
 30
0.0
 11
211.1807140607
 21
260.4289473924
 31
0.0
  0
LINE
  5
B9
330
1F
100
AcDbEntity
  8
0
  6
Continuous
 62
     7
370
    25
100
AcDbLine
 10
71.1807140607
 20
363.6441795017
 30
0.0
 11
71.1807140607
 21
260.4289473924
 31
0.0
  0
LINE
  5
BA
330
1F
100
AcDbEntity
  8
0
  6
Continuous
 62
     7
370
    25
100
AcDbLine
 10
111.1807140607
 20
363.4583506811
 30
0.0
 11
171.1807140607
 21
363.4583506811
 31
0.0
  0
LINE
  5
BB
330
1F
100
AcDbEntity
  8
0
  6
Continuous
 62
     7
370
    25
100
AcDbLine
 10
111.1807140607
 20
261.3995441038
 30
0.0
 11
111.1807140607
 21
363.4583506811
 31
0.0
  0
LINE
  5
BC
330
1F
100
AcDbEntity
  8
0
  6
Continuous
 62
     7
370
    25
100
AcDbLine
 10
171.1807140607
 20
261.3995441038
 30
0.0
 11
111.1807140607
 21
261.3995441038
 31
0.0
  0
LINE
  5
BD
330
1F
100
AcDbEntity
  8
0
  6
Continuous
 62
     7
370
    25
100
AcDbLine
 10
171.1807140607
 20
363.4583506811
 30
0.0
 11
171.1807140607
 21
261.3995441038
 31
0.0
  0
SPLINE
  5
BE
330
1F
100
AcDbEntity
  8
0
  6
Continuous
 62
     7
370
    25
100
AcDbSpline
210
0.0
220
0.0
230
1.0
 70
    11
 71
     3
 72
   130
 73
   126
 74
     0
 42
0.00000001
 43
0.00000001
 40
0.0
 40
0.0
 40
0.0
 40
0.0
 40
0.0312500000000001
 40
0.0312500000000001
 40
0.0468750000000001
 40
0.0468750000000001
 40
0.0625000000000002
 40
0.0625000000000002
 40
0.0937500000000002
 40
0.0937500000000002
 40
0.1093750000000003
 40
0.1093750000000003
 40
0.1250000000000003
 40
0.1250000000000003
 40
0.1406250000000003
 40
0.1406250000000003
 40
0.1562500000000004
 40
0.1562500000000004
 40
0.1875000000000004
 40
0.1875000000000004
 40
0.2031250000000004
 40
0.2031250000000004
 40
0.2109375000000004
 40
0.2109375000000004
 40
0.2187500000000004
 40
0.2187500000000004
 40
0.2500000000000003
 40
0.2500000000000003
 40
0.2656250000000004
 40
0.2656250000000004
 40
0.2812500000000003
 40
0.2812500000000003
 40
0.2968750000000003
 40
0.2968750000000003
 40
0.3125000000000003
 40
0.3125000000000003
 40
0.3437500000000003
 40
0.3437500000000003
 40
0.3593750000000003
 40
0.3593750000000003
 40
0.3750000000000002
 40
0.3750000000000002
 40
0.3906250000000002
 40
0.3906250000000002
 40
0.3984375000000003
 40
0.3984375000000003
 40
0.4062500000000003
 40
0.4062500000000003
 40
0.4375000000000002
 40
0.4375000000000002
 40
0.4531250000000002
 40
0.4531250000000002
 40
0.4687500000000002
 40
0.4687500000000002
 40
0.5000000000000001
 40
0.5000000000000001
 40
0.5078125000000001
 40
0.5078125000000001
 40
0.5156250000000001
 40
0.5156250000000001
 40
0.5312500000000002
 40
0.5312500000000002
 40
0.5468750000000002
 40
0.5468750000000002
 40
0.5625000000000002
 40
0.5625000000000002
 40
0.5781250000000003
 40
0.5781250000000003
 40
0.5937500000000003
 40
0.5937500000000003
 40
0.6250000000000004
 40
0.6250000000000004
 40
0.6406250000000004
 40
0.6406250000000004
 40
0.6484375000000004
 40
0.6484375000000004
 40
0.6562500000000004
 40
0.6562500000000004
 40
0.6875000000000004
 40
0.6875000000000004
 40
0.6953125000000004
 40
0.6953125000000004
 40
0.7031250000000004
 40
0.7031250000000004
 40
0.7187500000000006
 40
0.7187500000000006
 40
0.7500000000000004
 40
0.7500000000000004
 40
0.7578125000000006
 40
0.7578125000000006
 40
0.7656250000000006
 40
0.7656250000000006
 40
0.7812500000000006
 40
0.7812500000000006
 40
0.7968750000000007
 40
0.7968750000000007
 40
0.8046875000000007
 40
0.8046875000000007
 40
0.8125000000000007
 40
0.8125000000000007
 40
0.8437500000000007
 40
0.8437500000000007
 40
0.8515625000000007
 40
0.8515625000000007
 40
0.8593750000000006
 40
0.8593750000000006
 40
0.8750000000000004
 40
0.8750000000000004
 40
0.8906250000000004
 40
0.8906250000000004
 40
0.9062500000000003
 40
0.9062500000000003
 40
0.9375000000000002
 40
0.9375000000000002
 40
0.9531250000000001
 40
0.9531250000000001
 40
0.9609375000000001
 40
0.9609375000000001
 40
0.9687500000000001
 40
0.9687500000000001
 40
0.9843750000000001
 40
0.9843750000000001
 40
0.9921875000000001
 40
0.9921875000000001
 40
1.0
 40
1.0
 40
1.0
 40
1.0
 10
141.1807140607425
 20
286.7289473924429
 30
0.0
 10
142.9203059839014
 20
286.7289473924429
 30
0.0
 10
144.6205230503282
 20
286.9036203097018
 30
0.0
 10
147.1173890144551
 20
287.4096140153244
 30
0.0
 10
147.9407193160782
 20
287.6192931872347
 30
0.0
 10
149.5698234988985
 20
288.1217580101055
 30
0.0
 10
150.3630960338156
 20
288.4107801215271
 30
0.0
 10
152.6747252171377
 20
289.3817849087636
 30
0.0
 10
154.1304320657989
 20
290.1679460485294
 30
0.0
 10
156.1982075772495
 20
291.556615639792
 30
0.0
 10
156.8604428827473
 20
292.0498181077072
 30
0.0
 10
158.1280583374967
 20
293.0911520604836
 30
0.0
 10
158.7345389813046
 20
293.6400330930778
 30
0.0
 10
159.894647234364
 20
294.7952077135245
 30
0.0
 10
160.4482730703266
 20
295.4014958464593
 30
0.0
 10
161.5023951894733
 20
296.6745127011944
 30
0.0
 10
162.0037070665709
 20
297.3432161023136
 30
0.0
 10
163.3962283212341
 20
299.4018129701323
 30
0.0
 10
164.1884767875997
 20
300.8558030106994
 30
0.0
 10
165.1690149733877
 20
303.168676150822
 30
0.0
 10
165.460939386041
 20
303.9617631836603
 30
0.0
 10
165.8430978236641
 20
305.1874030337746
 30
0.0
 10
165.9606863638616
 20
305.6006577125719
 30
0.0
 10
166.1739778188214
 20
306.4281696082984
 30
0.0
 10
166.2700697570555
 20
306.8436443679133
 30
0.0
 10
166.6982857249118
 20
308.9295756666978
 30
0.0
 10
166.8752847399145
 20
310.6254816860118
 30
0.0
 10
166.8832461098238
 20
313.2120240178485
 30
0.0
 10
166.8417481337262
 20
314.0850279908377
 30
0.0
 10
166.6733777486579
 20
315.7987204913399
 30
0.0
 10
166.5468942840472
 20
316.6447930476535
 30
0.0
 10
166.2118326137926
 20
318.3161842394606
 30
0.0
 10
166.0032498282552
 20
319.1415011925313
 30
0.0
 10
165.5038828563053
 20
320.7716160416876
 30
0.0
 10
165.211812999629
 20
321.5782289949728
 30
0.0
 10
164.2331727123324
 20
323.9148705302891
 30
0.0
 10
163.4407959946865
 20
325.3807564445846
 30
0.0
 10
162.0482972452987
 20
327.4531486488454
 30
0.0
 10
161.548516132839
 20
328.1236753762886
 30
0.0
 10
160.4990038666327
 20
329.3987890743988
 30
0.0
 10
159.9472419148867
 20
330.0067291039098
 30
0.0
 10
158.7897807625892
 20
331.1661229396342
 30
0.0
 10
158.1840848224778
 20
331.7175728287484
 30
0.0
 10
157.233558497484
 20
332.5029382166553
 30
0.0
 10
156.9097025927528
 20
332.757743305873
 30
0.0
 10
156.2474894644143
 20
333.2532913788765
 30
0.0
 10
155.9084775796209
 20
333.4944265874197
 30
0.0
 10
154.1929179174579
 20
334.6531563210717
 30
0.0
 10
152.745099740301
 20
335.4402168046267
 30
0.0
 10
150.4494210401065
 20
336.4137749915129
 30
0.0
 10
149.6633697044121
 20
336.7034814022174
 30
0.0
 10
148.0454758746222
 20
337.2096554815892
 30
0.0
 10
147.21076704912
 20
337.4261233735895
 30
0.0
 10
144.6998445480509
 20
337.9441801939187
 30
0.0
 10
142.9969490719768
 20
338.1232677825365
 30
0.0
 10
140.8294407300776
 20
338.1302028611446
 30
0.0
 10
140.3929937258337
 20
338.1205225932765
 30
0.0
 10
139.5278537176824
 20
338.0793975310361
 30
0.0
 10
139.0978696516538
 20
338.0480077436002
 30
0.0
 10
137.815448212313
 20
337.9221418216281
 30
0.0
 10
136.9705287861384
 20
337.7960539727917
 30
0.0
 10
135.299860084626
 20
337.4615523870667
 30
0.0
 10
134.4741106101005
 20
337.2531380645715
 30
0.0
 10
132.8413108980848
 20
336.7532835038564
 30
0.0
 10
132.0454896983503
 20
336.4651648183366
 30
0.0
 10
130.4992475574032
 20
335.8190809028383
 30
0.0
 10
129.7474390377726
 20
335.4606751246527
 30
0.0
 10
128.2837456615753
 20
334.6741371239869
 30
0.0
 10
127.5703206601906
 20
334.2449579545419
 30
0.0
 10
125.4981115415045
 20
332.8571259621829
 30
0.0
 10
124.2307897292729
 20
331.8166319619658
 30
0.0
 10
122.4848423733504
 20
330.0819200543216
 30
0.0
 10
121.9289775694228
 20
329.4744334211188
 30
0.0
 10
121.1347072018884
 20
328.5168185066092
 30
0.0
 10
120.8761221624257
 20
328.1892174993806
 30
0.0
 10
120.3773695078644
 20
327.5247554667085
 30
0.0
 10
120.1366109171178
 20
327.1872398029709
 30
0.0
 10
118.9752626388037
 20
325.4731598659679
 30
0.0
 10
118.180516737777
 20
324.0179215206818
 30
0.0
 10
117.3597973962102
 20
322.084536015175
 30
0.0
 10
117.2043835292505
 20
321.6920882777823
 30
0.0
 10
116.9115346779063
 20
320.8951825002533
 30
0.0
 10
116.7737740713844
 20
320.4896637652037
 30
0.0
 10
116.3907905577947
 20
319.2616017129014
 30
0.0
 10
116.1778783676844
 20
318.4350774457379
 30
0.0
 10
115.6636920164087
 20
315.9322529220227
 30
0.0
 10
115.4856617206668
 20
314.2329109280787
 30
0.0
 10
115.4796029351437
 20
312.0678561858979
 30
0.0
 10
115.4894317416317
 20
311.6313192564639
 30
0.0
 10
115.5309887138672
 20
310.7646795433795
 30
0.0
 10
115.5626341754365
 20
310.3339043761792
 30
0.0
 10
115.6894023257971
 20
309.049019134107
 30
0.0
 10
115.8162753408968
 20
308.2023332125827
 30
0.0
 10
116.1527361709871
 20
306.5281557719808
 30
0.0
 10
116.3623261156551
 20
305.700665296998
 30
0.0
 10
116.7391957081819
 20
304.4737465364853
 30
0.0
 10
116.8756425066381
 20
304.066213301802
 30
0.0
 10
117.166449740771
 20
303.2645088449133
 30
0.0
 10
117.3210105146677
 20
302.8695083494935
 30
0.0
 10
118.1383785366555
 20
300.9226872026826
 30
0.0
 10
118.9333327993474
 20
299.4545771287553
 30
0.0
 10
120.099993358441
 20
297.7229076224326
 30
0.0
 10
120.3425040522669
 20
297.3812854116483
 30
0.0
 10
120.8405443649607
 20
296.7146028565617
 30
0.0
 10
121.0965233267147
 20
296.3888163482891
 30
0.0
 10
121.8850639732403
 20
295.4333605205986
 30
0.0
 10
122.4381637962798
 20
294.8255331756791
 30
0.0
 10
123.5993478530148
 20
293.6657135354382
 30
0.0
 10
124.2074270900553
 20
293.1137235437089
 30
0.0
 10
125.4809077298413
 20
292.0650964774466
 30
0.0
 10
126.1495477097473
 20
291.5665768443276
 30
0.0
 10
128.2089255899729
 20
290.1812380518783
 30
0.0
 10
129.6594930089287
 20
289.395652204292
 30
0.0
 10
131.9645394103108
 20
288.4237931490298
 30
0.0
 10
132.7545962479878
 20
288.1345652084902
 30
0.0
 10
133.9757253000456
 20
287.7558901491294
 30
0.0
 10
134.3893618200683
 20
287.638816844555
 30
0.0
 10
135.2182613551794
 20
287.4265036004422
 30
0.0
 10
135.6347952697282
 20
287.3308337347497
 30
0.0
 10
136.8907155546835
 20
287.0751309053326
 30
0.0
 10
137.736409795286
 20
286.9463203134987
 30
0.0
 10
139.018032280962
 20
286.8165053730103
 30
0.0
 10
139.4474226217765
 20
286.7838214879287
 30
0.0
 10
140.3106786138449
 20
286.7400427799079
 30
0.0
 10
140.7458160799528
 20
286.7289473924429
 30
0.0
 10
141.1807140607425
 20
286.7289473924429
 30
0.0
  0
LINE
  5
BF
330
1F
100
AcDbEntity
  8
0
  6
Continuous
 62
     7
370
    25
100
AcDbLine
 10
171.1807140607
 20
356.3037693294
 30
0.0
 11
111.1807140607
 21
356.3037693294
 31
0.0
  0
LINE
  5
C0
330
1F
100
AcDbEntity
  8
0
  6
Continuous
 62
     7
370
    25
100
AcDbLine
 10
111.1807140607
 20
268.5541254555
 30
0.0
 11
171.1807140607
 21
268.5541254555
 31
0.0
  0
LINE
  5
C1
330
1F
100
AcDbEntity
  8
0
  6
Continuous
 62
     7
370
    25
100
AcDbLine
 10
211.1807140607
 20
378.6441795017
 30
0.0
 11
71.1807140607
 21
378.6441795017
 31
0.0
  0
LINE
  5
C2
330
1F
100
AcDbEntity
  8
0
  6
Continuous
 62
     7
370
    25
100
AcDbLine
 10
71.1807140607
 20
378.6441795017
 30
0.0
 11
71.1807140607
 21
363.6441795017
 31
0.0
  0
LINE
  5
C3
330
1F
100
AcDbEntity
  8
0
  6
Continuous
 62
     7
370
    25
100
AcDbLine
 10
211.1807140607
 20
378.6441795017
 30
0.0
 11
211.1807140607
 21
363.6441795017
 31
0.0
  0
INSERT
  5
CF
330
1F
100
AcDbEntity
  8
FORMAT
100
AcDbBlockReference
  2
SW_CENTERMARKSYMBOL_0
 10
141.1807140607
 20
312.4289473924
 30
0.0
  0
LINE
  5
D0
330
1F
100
AcDbEntity
  8
0
  6
Continuous
 62
     7
370
    25
100
AcDbLine
 10
-65.7788433133
 20
126.7651206834
 30
0.0
 11
-65.7788433133
 21
142.2384285714
 31
0.0
  0
LINE
  5
D1
330
1F
100
AcDbEntity
  8
0
  6
Continuous
 62
     7
370
    25
100
AcDbLine
 10
-79.7788433133
 20
142.2384285714
 30
0.0
 11
-79.7788433133
 21
126.7681583147
 31
0.0
  0
LINE
  5
D2
330
1F
100
AcDbEntity
  8
0
  6
Continuous
 62
     7
370
    25
100
AcDbLine
 10
-104.2788433133
 20
195.2384285714
 30
0.0
 11
-104.2788433133
 21
116.6117291408
 31
0.0
  0
LINE
  5
D3
330
1F
100
AcDbEntity
  8
0
  6
Continuous
 62
     7
370
    25
100
AcDbLine
 10
-41.2788433133
 20
116.6189556517
 30
0.0
 11
-41.2788433133
 21
195.2384285714
 31
0.0
  0
LINE
  5
D4
330
1F
100
AcDbEntity
  8
0
  6
Continuous
 62
     7
370
    25
100
AcDbLine
 10
-138.9940754225
 20
66.2384285714
 30
0.0
 11
-123.9940754225
 21
66.2384285714
 31
0.0
  0
LINE
  5
D5
330
1F
100
AcDbEntity
  8
0
  6
Continuous
 62
     7
370
    25
100
AcDbLine
 10
-138.9940754225
 20
73.2384285714
 30
0.0
 11
-138.9940754225
 21
66.2384285714
 31
0.0
  0
LINE
  5
D6
330
1F
100
AcDbEntity
  8
0
  6
Continuous
 62
     7
370
    25
100
AcDbLine
 10
-117.7343768993
 20
73.2384285714
 30
0.0
 11
-138.9940754225
 21
73.2384285714
 31
0.0
  0
ARC
  5
D7
330
1F
100
AcDbEntity
  8
0
  6
Continuous
 62
     7
370
    25
100
AcDbCircle
 10
-72.7788433133
 20
75.2384285714
 30
0.0
 40
45.0
100
AcDbArc
 50
182.5473181826
 51
177.4526818174
  0
LINE
  5
D8
330
1F
100
AcDbEntity
  8
0
  6
Continuous
 62
     7
370
    25
100
AcDbLine
 10
-138.9940754225
 20
77.2384285714
 30
0.0
 11
-117.7343768993
 21
77.2384285714
 31
0.0
  0
LINE
  5
D9
330
1F
100
AcDbEntity
  8
0
  6
Continuous
 62
     7
370
    25
100
AcDbLine
 10
-138.9940754225
 20
84.2384285714
 30
0.0
 11
-138.9940754225
 21
77.2384285714
 31
0.0
  0
LINE
  5
DA
330
1F
100
AcDbEntity
  8
0
  6
Continuous
 62
     7
370
    25
100
AcDbLine
 10
-123.9940754225
 20
84.2384285714
 30
0.0
 11
-138.9940754225
 21
84.2384285714
 31
0.0
  0
ARC
  5
DB
330
1F
100
AcDbEntity
  8
0
  6
Continuous
 62
     7
370
    25
100
AcDbCircle
 10
-72.7788433133
 20
75.2384285714
 30
0.0
 40
51.99999999999999
100
AcDbArc
 50
189.9667663002
 51
170.0332336998
  0
LINE
  5
DC
330
1F
100
AcDbEntity
  8
0
  6
Continuous
 62
     7
370
    25
100
AcDbLine
 10
-79.7788433133
 20
142.2384285714
 30
0.0
 11
-65.7788433133
 21
142.2384285714
 31
0.0
  0
LINE
  5
DD
330
1F
100
AcDbEntity
  8
0
  6
Continuous
 62
     7
370
    25
100
AcDbLine
 10
-104.2788433133
 20
195.2384285714
 30
0.0
 11
-41.2788433133
 21
195.2384285714
 31
0.0
  0
LINE
  5
DE
330
1F
100
AcDbEntity
  8
0
  6
Continuous
 62
     7
370
    25
100
AcDbLine
 10
211.1807140607
 20
-66.8147587476
 30
0.0
 11
71.1807140607
 21
-66.8147587476
 31
0.0
  0
CIRCLE
  5
DF
330
1F
100
AcDbEntity
  8
0
  6
Continuous
 62
     7
370
    25
100
AcDbCircle
 10
141.1807140607
 20
-118.8147587476
 30
0.0
 40
25.70000000000002
  0
CIRCLE
  5
E0
330
1F
100
AcDbEntity
  8
0
  6
Continuous
 62
     7
370
    25
100
AcDbCircle
 10
141.1807140607
 20
-118.8147587476
 30
0.0
 40
31.5
  0
CIRCLE
  5
E1
330
1F
100
AcDbEntity
  8
0
  6
Continuous
 62
     7
370
    25
100
AcDbCircle
 10
81.1807140607
 20
-118.8147587476
 30
0.0
 40
4.59999999999998
  0
CIRCLE
  5
E2
330
1F
100
AcDbEntity
  8
0
  6
Continuous
 62
     7
370
    25
100
AcDbCircle
 10
81.1807140607
 20
-118.8147587476
 30
0.0
 40
7.0
  0
CIRCLE
  5
E3
330
1F
100
AcDbEntity
  8
0
  6
Continuous
 62
     7
370
    25
100
AcDbCircle
 10
201.1807140607
 20
-118.8147587476
 30
0.0
 40
4.59999999999998
  0
CIRCLE
  5
E4
330
1F
100
AcDbEntity
  8
0
  6
Continuous
 62
     7
370
    25
100
AcDbCircle
 10
201.1807140607
 20
-118.8147587476
 30
0.0
 40
7.0
  0
CIRCLE
  5
E5
330
1F
100
AcDbEntity
  8
0
  6
Continuous
 62
     7
370
    25
100
AcDbCircle
 10
81.1807140607
 20
-118.8147587476
 30
0.0
 40
1.500000000000014
  0
CIRCLE
  5
E6
330
1F
100
AcDbEntity
  8
0
  6
Continuous
 62
     7
370
    25
100
AcDbCircle
 10
81.1807140607
 20
-118.8147587476
 30
0.0
 40
2.000000000000014
  0
CIRCLE
  5
E7
330
1F
100
AcDbEntity
  8
0
  6
Continuous
 62
     7
370
    25
100
AcDbCircle
 10
201.1807140607
 20
-118.8147587476
 30
0.0
 40
1.500000000000014
  0
CIRCLE
  5
E8
330
1F
100
AcDbEntity
  8
0
  6
Continuous
 62
     7
370
    25
100
AcDbCircle
 10
201.1807140607
 20
-118.8147587476
 30
0.0
 40
2.000000000000014
  0
LINE
  5
E9
330
1F
100
AcDbEntity
  8
0
  6
Continuous
 62
     7
370
    25
100
AcDbLine
 10
211.1807140607
 20
-66.8147587476
 30
0.0
 11
211.1807140607
 21
-170.0299908568
 31
0.0
  0
LINE
  5
EA
330
1F
100
AcDbEntity
  8
0
  6
Continuous
 62
     7
370
    25
100
AcDbLine
 10
211.1807140607
 20
-170.0299908568
 30
0.0
 11
71.1807140607
 21
-170.0299908568
 31
0.0
  0
LINE
  5
EB
330
1F
100
AcDbEntity
  8
0
  6
Continuous
 62
     7
370
    25
100
AcDbLine
 10
71.1807140607
 20
-66.8147587476
 30
0.0
 11
71.1807140607
 21
-170.0299908568
 31
0.0
  0
LINE
  5
EC
330
1F
100
AcDbEntity
  8
0
  6
Continuous
 62
     7
370
    25
100
AcDbLine
 10
211.1807140607
 20
-185.0299908568
 30
0.0
 11
71.1807140607
 21
-185.0299908568
 31
0.0
  0
LINE
  5
ED
330
1F
100
AcDbEntity
  8
0
  6
Continuous
 62
     7
370
    25
100
AcDbLine
 10
71.1807140607
 20
-170.0299908568
 30
0.0
 11
71.1807140607
 21
-185.0299908568
 31
0.0
  0
LINE
  5
EE
330
1F
100
AcDbEntity
  8
0
  6
Continuous
 62
     7
370
    25
100
AcDbLine
 10
211.1807140607
 20
-170.0299908568
 30
0.0
 11
211.1807140607
 21
-185.0299908568
 31
0.0
  0
INSERT
  5
FA
330
1F
100
AcDbEntity
  8
FORMAT
100
AcDbBlockReference
  2
SW_CENTERMARKSYMBOL_1
 10
141.1807140607
 20
-118.8147587476
 30
0.0
  0
INSERT
  5
106
330
1F
100
AcDbEntity
  8
FORMAT
100
AcDbBlockReference
  2
SW_CENTERMARKSYMBOL_2
 10
81.1807140607
 20
-118.8147587476
 30
0.0
  0
INSERT
  5
112
330
1F
100
AcDbEntity
  8
FORMAT
100
AcDbBlockReference
  2
SW_CENTERMARKSYMBOL_3
 10
201.1807140607
 20
-118.8147587476
 30
0.0
  0
LINE
  5
113
330
1F
100
AcDbEntity
  8
0
  6
Continuous
 62
     7
370
    25
100
AcDbLine
 10
405.418252029
 20
-146.2994660999
 30
0.0
 11
433.7025232765
 21
-129.9713038635
 31
0.0
  0
LINE
  5
114
330
1F
100
AcDbEntity
  8
0
  6
Continuous
 62
     7
370
    25
100
AcDbLine
 10
334.7075739103
 20
-187.1198716911
 30
0.0
 11
362.9918451578
 21
-170.7917094546
 31
0.0
  0
LINE
  5
115
330
1F
100
AcDbEntity
  8
0
  6
Continuous
 62
     7
370
    25
100
AcDbLine
 10
381.7067491794
 20
-39.9022221759
 30
0.0
 11
362.0654054189
 21
-51.2409285777
 31
0.0
  0
LINE
  5
116
330
1F
100
AcDbEntity
  8
0
  6
Continuous
 62
     7
370
    25
100
AcDbLine
 10
326.7071615449
 20
-15.5261495072
 30
0.0
 11
326.7071615449
 21
-70.288089937
 31
0.0
  0
LINE
  5
117
330
1F
100
AcDbEntity
  8
0
  6
Continuous
 62
     7
370
    25
100
AcDbLine
 10
389.7071615449
 20
-37.5208838096
 30
0.0
 11
389.7071615449
 21
-15.5261495072
 31
0.0
  0
LINE
  5
118
330
1F
100
AcDbEntity
  8
0
  6
Continuous
 62
     7
370
    25
100
AcDbLine
 10
407.6335684161
 20
-42.4356935358
 30
0.0
 11
407.6335684161
 21
-34.3105691825
 31
0.0
  0
LINE
  5
119
330
1F
100
AcDbEntity
  8
0
  6
Continuous
 62
     7
370
    25
100
AcDbLine
 10
393.6335684161
 20
-34.3105691825
 30
0.0
 11
393.6335684161
 21
-37.5856558824
 31
0.0
  0
LINE
  5
11A
330
1F
100
AcDbEntity
  8
0
  6
Continuous
 62
     7
370
    25
100
AcDbLine
 10
360.8833965857
 20
-65.2563040166
 30
0.0
 11
371.4899983035
 21
-71.3793648552
 31
0.0
  0
LINE
  5
11B
330
1F
100
AcDbEntity
  8
0
  6
Continuous
 62
     7
370
    25
100
AcDbLine
 10
360.8833965857
 20
-59.5405183334
 30
0.0
 11
360.8833965857
 21
-65.2563040166
 31
0.0
  0
LINE
  5
11C
330
1F
100
AcDbEntity
  8
0
  6
Continuous
 62
     7
370
    25
100
AcDbLine
 10
375.9162735774
 20
-68.218813498
 30
0.0
 11
360.8833965857
 21
-59.5405183334
 31
0.0
  0
LWPOLYLINE
  5
11D
330
1F
100
AcDbEntity
  8
0
  6
Continuous
 62
     7
370
    25
100
AcDbPolyline
 90
      101
 70
   128
 43
0.0
 10
375.9162735774
 20
-64.9526502505
 10
376.0647825358
 20
-62.7691750933
 10
376.3346514645
 20
-60.6707274409
 10
376.7248452357
 20
-58.6653562415
 10
377.2338671958
 20
-56.7607534329
 10
377.8597649057
 20
-54.964224439
 10
378.6001376296
 20
-53.2826601483
 10
379.4521455436
 20
-51.7225104829
 10
380.4125206284
 20
-50.2897596588
 10
381.477579204
 20
-48.9899032323
 10
382.6432360596
 20
-47.8279270208
 10
383.9050201226
 20
-46.8082879792
 10
385.2580916084
 20
-45.9348971043
 10
386.6972605841
 20
-45.2111044333
 10
388.2170068756
 20
-44.6396861946
 10
389.8115012409
 20
-44.2228341586
 10
391.4746277292
 20
-43.9621472314
 10
393.2000071395
 20
-43.8586253215
 10
394.9810214896
 20
-43.9126655045
 10
396.8108394
 20
-44.1240605001
 10
398.6824422968
 20
-44.4919994675
 10
400.588651333
 20
-45.015071115
 10
402.5221549238
 20
-45.6912691133
 10
404.4755367916
 20
-46.5179997917
 10
406.4413044124
 20
-47.4920920857
 10
408.4119177544
 20
-48.609809701
 10
410.3798181994
 20
-49.8668654439
 10
412.3374575349
 20
-51.2584376661
 10
414.2773269066
 20
-52.7791887587
 10
416.1919856198
 20
-54.4232856257
 10
418.0740896796
 20
-56.1844220575
 10
419.91641996
 20
-58.0558429198
 10
421.7119098939
 20
-60.0303700635
 10
423.4536725783
 20
-62.1004298585
 10
425.13502719
 20
-64.2580822428
 10
426.7495246111
 20
-66.4950511785
 10
428.2909721658
 20
-68.8027563959
 10
429.7534573731
 20
-71.172346304
 10
431.1313706257
 20
-73.5947319431
 10
432.4194267058
 20
-76.0606218463
 10
433.6126850582
 20
-78.5605576791
 10
434.7065687401
 20
-81.0849505178
 10
435.6968819771
 20
-83.6241176299
 10
436.5798262564
 20
-86.1683196138
 10
437.3520148972
 20
-88.7077977557
 10
438.0104860401
 20
-91.2328114607
 10
438.5527140087
 20
-93.7336756151
 10
438.9766189966
 20
-96.2007977345
 10
439.2805750449
 20
-98.6247147578
 10
439.4634162792
 20
-100.9961293445
 10
439.5244413813
 20
-103.3059455357
 10
439.4634162792
 20
-105.5453036438
 10
439.2805750449
 20
-107.7056142347
 10
438.9766189966
 20
-109.7785910747
 10
438.5527140087
 20
-111.7562829129
 10
438.0104860401
 20
-113.6311039805
 10
437.3520148972
 20
-115.3958630863
 10
436.5798262564
 20
-117.0437912007
 10
435.6968819771
 20
-118.5685674188
 10
434.7065687401
 20
-119.9643432053
 10
433.6126850582
 20
-121.2257648279
 10
432.4194267058
 20
-122.3479938923
 10
431.1313706257
 20
-123.3267259005
 10
429.7534573731
 20
-124.1582067616
 10
428.2909721658
 20
-124.8392471911
 10
426.7495246111
 20
-125.3672349441
 10
425.13502719
 20
-125.7401448351
 10
423.4536725783
 20
-125.9565465054
 10
421.7119098939
 20
-126.0156099103
 10
419.91641996
 20
-125.917108502
 10
418.0740896796
 20
-125.6614200992
 10
416.1919856198
 20
-125.2495254378
 10
414.2773269066
 20
-124.6830044089
 10
412.3374575349
 20
-123.964029999
 10
410.3798181994
 20
-123.095359955
 10
408.4119177544
 20
-122.0803262069
 10
406.4413044124
 20
-120.9228220869
 10
404.4755367916
 20
-119.6272873963
 10
402.5221549238
 20
-118.1986913761
 10
400.588651333
 20
-116.6425136459
 10
398.6824422968
 20
-114.9647231869
 10
396.8108394
 20
-113.1717554458
 10
394.9810214896
 20
-111.2704876515
 10
393.2000071395
 20
-109.2682124357
 10
391.4746277292
 20
-107.1726098612
 10
389.8115012409
 20
-104.9917179634
 10
388.2170068756
 20
-102.7339019193
 10
386.6972605841
 20
-100.4078219614
 10
385.2580916084
 20
-98.0224001598
 10
383.9050201226
 20
-95.5867862002
 10
382.6432360596
 20
-93.1103222889
 10
381.477579204
 20
-90.602507319
 10
380.4125206284
 20
-88.0729604357
 10
379.4521455436
 20
-85.5313841407
 10
378.6001376296
 20
-82.9875270766
 10
377.8597649057
 20
-80.4511466342
 10
377.2338671958
 20
-77.9319715264
 10
376.7248452357
 20
-75.4396644723
 10
376.3346514645
 20
-72.983785134
 10
376.0647825358
 20
-70.5737534488
 10
375.9162735774
 20
-68.218813498
  0
LINE
  5
11E
330
1F
100
AcDbEntity
  8
0
  6
Continuous
 62
     7
370
    25
100
AcDbLine
 10
360.8833965857
 20
-56.2743550858
 30
0.0
 11
375.9162735774
 21
-64.9526502505
 31
0.0
  0
LINE
  5
11F
330
1F
100
AcDbEntity
  8
0
  6
Continuous
 62
     7
370
    25
100
AcDbLine
 10
360.8833965857
 20
-50.5585694026
 30
0.0
 11
360.8833965857
 21
-56.2743550858
 31
0.0
  0
LINE
  5
120
330
1F
100
AcDbEntity
  8
0
  6
Continuous
 62
     7
370
    25
100
AcDbLine
 10
371.4899983035
 20
-56.6816302413
 30
0.0
 11
360.8833965857
 21
-50.5585694026
 31
0.0
  0
LWPOLYLINE
  5
121
330
1F
100
AcDbEntity
  8
0
  6
Continuous
 62
     7
370
    25
100
AcDbPolyline
 90
      104
 70
   128
 43
0.0
 10
371.4899983035
 20
-71.3793648552
 10
371.9166220724
 20
-74.0219183627
 10
372.4620482727
 20
-76.7007049531
 10
373.1244662993
 20
-79.406832086
 10
373.9016771793
 20
-82.131316461
 10
374.7911008718
 20
-84.8651138386
 10
375.7897848325
 20
-87.599149064
 10
376.894413815
 20
-90.3243461925
 10
378.1013208764
 20
-93.0316586187
 10
379.4064995497
 20
-95.7120991075
 10
380.8056171442
 20
-98.3567696281
 10
382.2940291279
 20
-100.9568908924
 10
383.8667945461
 20
-103.5038314987
 10
385.5186924229
 20
-105.9891365846
 10
387.2442390933
 20
-108.4045558938
 10
389.0377064064
 20
-110.742071164
 10
390.8931407413
 20
-112.9939227442
 10
392.80438277
 20
-115.152635354
 10
394.7650879047
 20
-117.2110428984
 10
396.7687473591
 20
-119.1623122568
 10
398.808709755
 20
-120.9999659659
 10
400.8782032026
 20
-122.7179037229
 10
402.9703577802
 20
-124.3104226355
 10
405.0782283399
 20
-125.7722361541
 10
407.1948175629
 20
-127.0984916204
 10
409.3130991875
 20
-128.2847863768
 10
411.4260413343
 20
-129.3271823813
 10
413.5266298486
 20
-130.2222192805
 10
415.607891585
 20
-130.9669258964
 10
417.6629175559
 20
-131.5588300896
 10
419.6848858659
 20
-131.995966966
 10
421.6670843585
 20
-132.2768853996
 10
423.6029328979
 20
-132.4006528491
 10
425.486005212
 20
-132.3668584545
 10
427.3100502255
 20
-132.1756143999
 10
429.0690128111
 20
-131.8275555421
 10
430.7570538901
 20
-131.3238373025
 10
432.3685698159
 20
-130.6661318318
 10
433.8982109759
 20
-129.856622459
 10
435.3408995503
 20
-128.8979964435
 10
436.6918463683
 20
-127.7934360548
 10
437.9465668065
 20
-126.5466080081
 10
439.100895676
 20
-125.1616512927
 10
440.1510010493
 20
-123.6431634317
 10
441.0933969808
 20
-121.9961852204
 10
441.9249550787
 20
-120.2261839924
 10
442.6429148902
 20
-118.3390354706
 10
443.2448930651
 20
-116.3410042615
 10
443.7288912676
 20
-114.2387230597
 10
444.09330281
 20
-112.0391706296
 10
444.3369179862
 20
-109.7496486386
 10
444.4589280876
 20
-107.3777574184
 10
444.4589280876
 20
-104.9313707349
 10
444.3369179862
 20
-102.4186096502
 10
444.09330281
 20
-99.8478155638
 10
443.7288912676
 20
-97.2275225226
 10
443.2448930651
 20
-94.5664288909
 10
442.6429148902
 20
-91.8733684751
 10
441.9249550787
 20
-89.1572811993
 10
441.0933969808
 20
-86.4271834277
 10
440.1510010493
 20
-83.6921380341
 10
439.100895676
 20
-80.9612243163
 10
437.9465668065
 20
-78.2435078568
 10
436.6918463683
 20
-75.548010428
 10
435.3408995503
 20
-72.8836800438
 10
433.8982109759
 20
-70.2593612556
 10
432.3685698159
 20
-67.6837657916
 10
430.7570538901
 20
-65.1654436373
 10
429.0690128111
 20
-62.7127546529
 10
427.3100502255
 20
-60.3338408217
 10
425.486005212
 20
-58.036599222
 10
423.6029328979
 20
-55.8286558116
 10
421.6670843585
 20
-53.7173401127
 10
419.6848858659
 20
-51.7096608808
 10
417.6629175559
 20
-49.812282838
 10
415.607891585
 20
-48.0315045493
 10
413.5266298486
 20
-46.3732375129
 10
411.4260413343
 20
-44.8429865372
 10
409.3130991875
 20
-43.4458314664
 10
407.1948175629
 20
-42.1864103175
 10
405.0782283399
 20
-41.068903884
 10
402.9703577802
 20
-40.097021857
 10
400.8782032026
 20
-39.2739905108
 10
398.808709755
 20
-38.6025419926
 10
396.7687473591
 20
-38.0849052531
 10
394.7650879047
 20
-37.722798647
 10
392.80438277
 20
-37.5174242289
 10
390.8931407413
 20
-37.4694637627
 10
389.0377064064
 20
-37.5790764588
 10
387.2442390933
 20
-37.8458984451
 10
385.5186924229
 20
-38.2690439755
 10
383.8667945461
 20
-38.8471083695
 10
382.2940291279
 20
-39.578172676
 10
380.8056171442
 20
-40.4598100429
 10
379.4064995497
 20
-41.4890937734
 10
378.1013208764
 20
-42.6626070418
 10
376.894413815
 20
-43.9764542357
 10
375.7897848325
 20
-45.4262738881
 10
374.7911008718
 20
-47.007253156
 10
373.9016771793
 20
-48.7141437966
 10
373.1244662993
 20
-50.5412795901
 10
372.4620482727
 20
-52.482595149
 10
371.9166220724
 20
-54.5316460528
 10
371.4899983035
 20
-56.6816302413
  0
LINE
  5
122
330
1F
100
AcDbEntity
  8
0
  6
Continuous
 62
     7
370
    25
100
AcDbLine
 10
371.4899983035
 20
-71.3793648552
 30
0.0
 11
272.4950489373
 21
-128.5279326828
 31
0.0
  0
LWPOLYLINE
  5
123
330
1F
100
AcDbEntity
  8
0
  6
Continuous
 62
     7
370
    25
100
AcDbPolyline
 90
       39
 70
   128
 43
0.0
 10
272.4950489373
 20
-128.5279326828
 10
272.9216727063
 20
-131.1704861903
 10
273.4670989066
 20
-133.8492727807
 10
274.1295169331
 20
-136.5553999136
 10
274.9067278132
 20
-139.2798842885
 10
275.7961515057
 20
-142.0136816662
 10
276.7948354664
 20
-144.7477168916
 10
277.8994644489
 20
-147.4729140201
 10
279.1063715103
 20
-150.1802264463
 10
280.4115501836
 20
-152.8606669351
 10
281.8106677781
 20
-155.5053374557
 10
283.2990797618
 20
-158.10545872
 10
284.87184518
 20
-160.6523993263
 10
286.5237430568
 20
-163.1377044122
 10
288.2492897272
 20
-165.5531237214
 10
290.0427570403
 20
-167.8906389916
 10
291.8981913751
 20
-170.1424905718
 10
293.8094334038
 20
-172.3012031816
 10
295.7701385385
 20
-174.359610726
 10
297.773797993
 20
-176.3108800844
 10
299.8137603889
 20
-178.1485337935
 10
301.8832538365
 20
-179.8664715505
 10
303.9754084141
 20
-181.4589904631
 10
306.0832789738
 20
-182.9208039817
 10
308.1998681968
 20
-184.247059448
 10
310.3181498214
 20
-185.4333542044
 10
312.4310919682
 20
-186.4757502089
 10
314.5316804824
 20
-187.3707871081
 10
316.6129422189
 20
-188.115493724
 10
318.6679681897
 20
-188.7073979171
 10
320.6899364997
 20
-189.1445347936
 10
322.6721349924
 20
-189.4254532271
 10
324.6079835318
 20
-189.5492206767
 10
326.4910558459
 20
-189.5154262821
 10
328.3151008593
 20
-189.3241822275
 10
330.074063445
 20
-188.9761233697
 10
331.762104524
 20
-188.4724051301
 10
333.3736204498
 20
-187.8146996594
 10
334.7075739103
 20
-187.1198716911
  0
LINE
  5
124
330
1F
100
AcDbEntity
  8
0
  6
Continuous
 62
     7
370
    25
100
AcDbLine
 10
300.9107210039
 20
-113.0921673365
 30
0.0
 11
343.3371278751
 21
-88.5999239818
 31
0.0
  0
LWPOLYLINE
  5
125
330
1F
100
AcDbEntity
  8
0
  6
Continuous
 62
     7
370
    25
100
AcDbPolyline
 90
       48
 70
   128
 43
0.0
 10
373.0771952146
 20
-154.7529861229
 10
372.601059803
 20
-156.9047471734
 10
372.0026535099
 20
-158.9495508557
 10
371.2840311969
 20
-160.8803755383
 10
370.4476605342
 20
-162.6905909809
 10
369.4964135268
 20
-164.3739811023
 10
368.4335566527
 20
-165.9247653255
 10
367.2627396459
 20
-167.3376184275
 10
365.9879829634
 20
-168.6076888257
 10
364.6136639798
 20
-169.7306152378
 10
363.1445019559
 20
-170.7025416576
 10
361.5855418329
 20
-171.5201305964
 10
359.9421369088
 20
-172.1805745435
 10
358.2199304559
 20
-172.6816056067
 10
356.4248363422
 20
-173.0215033004
 10
354.563018724
 20
-173.1991004532
 10
352.6408708789
 20
-173.2137872159
 10
350.6649932515
 20
-173.0655131558
 10
348.6421707891
 20
-172.7547874298
 10
346.579349642
 20
-172.2826770359
 10
344.4836133117
 20
-171.6508031494
 10
342.3621583271
 20
-170.861335556
 10
340.2222695317
 20
-169.9169852007
 10
338.0712950691
 20
-168.8209948791
 10
335.9166211495
 20
-167.5771281017
 10
333.7656466868
 20
-166.1896561707
 10
331.6257578914
 20
-164.6633435124
 10
329.5043029068
 20
-163.0034313171
 10
327.4085665766
 20
-161.2156195412
 10
325.3457454295
 20
-159.3060473342
 10
323.322922967
 20
-157.2812719576
 10
321.3470453397
 20
-155.148246268
 10
319.4248974945
 20
-152.9142948416
 10
317.5630798763
 20
-150.5870888226
 10
315.7679857626
 20
-148.1746195811
 10
314.0457793097
 20
-145.685171272
 10
312.4023743856
 20
-143.1272923877
 10
310.8434142626
 20
-140.5097664036
 10
309.3742522387
 20
-137.8415816168
 10
307.9999332552
 20
-135.1319002814
 10
306.7251765727
 20
-132.3900271457
 10
305.5543595658
 20
-129.6253775014
 10
304.4915026917
 20
-126.847444852
 10
303.5402556844
 20
-124.0657683136
 10
302.7038850216
 20
-121.2898998583
 10
301.9852627086
 20
-118.5293715139
 10
301.3868564155
 20
-115.7936626319
 10
300.9107210039
 20
-113.0921673365
  0
LINE
  5
126
330
1F
100
AcDbEntity
  8
0
  6
Continuous
 62
     7
370
    25
100
AcDbLine
 10
386.4855681581
 20
-147.0124971835
 30
0.0
 11
373.0771952146
 21
-154.7529861229
 31
0.0
  0
LWPOLYLINE
  5
127
330
1F
100
AcDbEntity
  8
0
  6
Continuous
 62
     7
370
    25
100
AcDbPolyline
 90
       38
 70
   128
 43
0.0
 10
343.3371278751
 20
-88.5999239818
 10
343.8132632867
 20
-91.3014192772
 10
344.4116695798
 20
-94.0371281592
 10
345.1302918928
 20
-96.7976565036
 10
345.9666625556
 20
-99.5735249589
 10
346.9179095629
 20
-102.3552014973
 10
347.980766437
 20
-105.1331341467
 10
349.1515834439
 20
-107.897783791
 10
350.4263401264
 20
-110.6396569267
 10
351.8006591099
 20
-113.3493382622
 10
353.2698211338
 20
-116.0175230489
 10
354.8287812568
 20
-118.635049033
 10
356.4721861809
 20
-121.1929279173
 10
358.1943926338
 20
-123.6823762265
 10
359.9894867475
 20
-126.0948454679
 10
361.8513043657
 20
-128.4220514869
 10
363.7734522109
 20
-130.6560029133
 10
365.7493298382
 20
-132.7890286029
 10
367.7721523007
 20
-134.8138039795
 10
369.8349734478
 20
-136.7233761865
 10
371.930709778
 20
-138.5111879624
 10
374.0521647626
 20
-140.1711001577
 10
376.192053558
 20
-141.697412816
 10
378.3430280206
 20
-143.0848847471
 10
380.4977019403
 20
-144.3287515244
 10
382.6486764029
 20
-145.424741846
 10
384.7885651983
 20
-146.3690922013
 10
386.9100201829
 20
-147.1585597947
 10
389.0057565131
 20
-147.7904336812
 10
391.0685776603
 20
-148.2625440751
 10
393.0914001227
 20
-148.5732698011
 10
395.06727775
 20
-148.7215438612
 10
396.9894255952
 20
-148.7068570985
 10
398.8512432134
 20
-148.5292599457
 10
400.6463373271
 20
-148.189362252
 10
402.36854378
 20
-147.6883311888
 10
404.0119487041
 20
-147.0278872418
 10
405.418252029
 20
-146.2994660999
  0
SPLINE
  5
128
330
1F
100
AcDbEntity
  8
0
  6
Continuous
 62
     7
370
    25
100
AcDbSpline
210
0.0
220
0.0
230
1.0
 70
     8
 71
     3
 72
    19
 73
    15
 74
     0
 42
0.00000001
 43
0.00000001
 40
0.0
 40
0.0
 40
0.0
 40
0.0
 40
0.1068137154462936
 40
0.217003562026843
 40
0.2985071227750798
 40
0.3802276510104635
 40
0.4617268292514791
 40
0.550961191915797
 40
0.6405046475211233
 40
0.729659429838373
 40
0.8109178089540282
 40
0.8924921919658247
 40
0.9737214389013155
 40
1.0
 40
1.0
 40
1.0
 40
1.0
 10
381.025135725079
 20
-89.49830973481865
 30
0.0
 10
381.5480670939426
 20
-88.63430748005932
 30
0.0
 10
382.6104584662942
 20
-86.87899388480972
 30
0.0
 10
383.4561029511264
 20
-84.16744365907503
 30
0.0
 10
383.8730123370091
 20
-81.62462674911541
 30
0.0
 10
383.9458531582129
 20
-79.32350259777144
 30
0.0
 10
383.7199439045102
 20
-76.9709995172227
 30
0.0
 10
383.1473836483753
 20
-74.6160643387326
 30
0.0
 10
382.2021307148664
 20
-72.31780050878761
 30
0.0
 10
380.9401083407876
 20
-70.2636857337453
 30
0.0
 10
379.3988706661016
 20
-68.48876791780165
 30
0.0
 10
377.6178007193586
 20
-67.03230130368912
 30
0.0
 10
376.1059715219803
 20
-66.0210273035754
 30
0.0
 10
375.100449980429
 20
-65.65497795543321
 30
0.0
 10
374.8546663508595
 20
-65.56550305741249
 30
0.0
  0
LINE
  5
129
330
1F
100
AcDbEntity
  8
0
  6
Continuous
 62
     7
370
    25
100
AcDbLine
 10
375.9162735774
 20
-64.9526502505
 30
0.0
 11
373.0873867164
 21
-66.5857318742
 31
0.0
  0
LWPOLYLINE
  5
12A
330
1F
100
AcDbEntity
  8
0
  6
Continuous
 62
     7
370
    25
100
AcDbPolyline
 90
       25
 70
   128
 43
0.0
 10
315.7857968827
 20
-110.3460270676
 10
317.1970362536
 20
-111.5718534533
 10
319.0791403135
 20
-113.3329898851
 10
320.9214705939
 20
-115.2044107474
 10
322.7169605278
 20
-117.1789378911
 10
324.4587232122
 20
-119.2489976861
 10
326.1400778239
 20
-121.4066500704
 10
327.754575245
 20
-123.6436190061
 10
329.2960227996
 20
-125.9513242235
 10
330.758508007
 20
-128.3209141316
 10
332.1364212595
 20
-130.7432997707
 10
333.4244773397
 20
-133.2091896739
 10
334.617735692
 20
-135.7091255067
 10
335.711619374
 20
-138.2335183454
 10
336.7019326109
 20
-140.7726854575
 10
337.5848768903
 20
-143.3168874414
 10
338.3570655311
 20
-145.8563655833
 10
339.015536674
 20
-148.3813792883
 10
339.5577646426
 20
-150.8822434427
 10
339.9816696304
 20
-153.3493655621
 10
340.2856256787
 20
-155.7732825854
 10
340.4684669131
 20
-158.144697172
 10
340.5294920152
 20
-160.4545133633
 10
340.4684669131
 20
-162.6938714714
 10
340.3513287878
 20
-164.2345682631
  0
LINE
  5
12B
330
1F
100
AcDbEntity
  8
0
  6
Continuous
 62
     7
370
    25
100
AcDbLine
 10
344.3663432614
 20
-93.8468288385
 30
0.0
 11
305.9697739943
 21
-116.0126964626
 31
0.0
  0
LINE
  5
12C
330
1F
100
AcDbEntity
  8
0
  6
Continuous
 62
     7
370
    25
100
AcDbLine
 10
368.0181422242
 20
-151.8324569967
 30
0.0
 11
380.7658671739
 21
-144.4733520263
 31
0.0
  0
LWPOLYLINE
  5
12D
330
1F
100
AcDbEntity
  8
0
  6
Continuous
 62
     7
370
    25
100
AcDbPolyline
 90
       44
 70
   128
 43
0.0
 10
305.9697739943
 20
-116.0126964626
 10
306.4732382941
 20
-118.5298800352
 10
307.096409625
 20
-121.0754101626
 10
307.8368438118
 20
-123.639302878
 10
308.6916367559
 20
-126.2115021937
 10
309.6574358257
 20
-128.7819195421
 10
310.7304530065
 20
-131.3404733448
 10
311.9064797573
 20
-133.8771285541
 10
313.1809035174
 20
-136.381936012
 10
314.5487257977
 20
-138.8450714723
 10
316.0045817857
 20
-141.256874133
 10
317.5427613865
 20
-143.6078845272
 10
319.1572316197
 20
-145.8888816249
 10
320.8416602806
 20
-148.0909189991
 10
322.5894407769
 20
-150.2053599153
 10
324.3937180406
 20
-152.2239112058
 10
326.2474154142
 20
-154.1386557972
 10
328.1432624071
 20
-155.942083762
 10
330.0738232113
 20
-157.627121774
 10
332.0315258656
 20
-159.187160851
 10
334.0086919544
 20
-160.6160822758
 10
335.9975667234
 20
-161.9082815955
 10
337.9903494951
 20
-163.0586906025
 10
339.9792242641
 20
-164.0627972128
 10
341.9563903529
 20
-164.9166631636
 10
343.9140930072
 20
-165.6169394592
 10
345.8446538114
 20
-166.1608795065
 10
347.7405008043
 20
-166.5463498877
 10
349.594198178
 20
-166.7718387278
 10
351.3984754416
 20
-166.8364616243
 10
353.1462559379
 20
-166.739965116
 10
354.8306845989
 20
-166.4827276774
 10
356.445154832
 20
-166.065758234
 10
357.9833344329
 20
-165.4906922049
 10
359.4391904208
 20
-164.759785089
 10
360.8070127011
 20
-163.8759036182
 10
362.0814364612
 20
-162.8425145137
 10
363.257463212
 20
-161.663670889
 10
364.3304803928
 20
-160.343996353
 10
365.2962794627
 20
-158.8886668753
 10
366.1510724067
 20
-157.3033904856
 10
366.8915065935
 20
-155.5943848854
 10
367.5146779244
 20
-153.7683530618
 10
368.0181422242
 20
-151.8324569967
  0
LINE
  5
12E
330
1F
100
AcDbEntity
  8
0
  6
Continuous
 62
     7
370
    25
100
AcDbLine
 10
360.8833965857
 20
-59.5405183334
 30
0.0
 11
261.8884472195
 21
-116.689086161
 31
0.0
  0
LINE
  5
12F
330
1F
100
AcDbEntity
  8
0
  6
Continuous
 62
     7
370
    25
100
AcDbLine
 10
360.8833965857
 20
-65.2563040166
 30
0.0
 11
261.8884472195
 21
-122.4048718442
 31
0.0
  0
LINE
  5
130
330
1F
100
AcDbEntity
  8
0
  6
Continuous
 62
     7
370
    25
100
AcDbLine
 10
261.8884472195
 20
-116.689086161
 30
0.0
 11
261.8884472195
 21
-122.4048718442
 31
0.0
  0
LINE
  5
131
330
1F
100
AcDbEntity
  8
0
  6
Continuous
 62
     7
370
    25
100
AcDbLine
 10
261.8884472195
 20
-122.4048718442
 30
0.0
 11
272.4950489373
 21
-128.5279326828
 31
0.0
  0
LINE
  5
132
330
1F
100
AcDbEntity
  8
0
  6
Continuous
 62
     7
370
    25
100
AcDbLine
 10
360.8833965857
 20
-50.5585694026
 30
0.0
 11
261.8884472195
 21
-107.7071372302
 31
0.0
  0
LINE
  5
133
330
1F
100
AcDbEntity
  8
0
  6
Continuous
 62
     7
370
    25
100
AcDbLine
 10
360.8833965857
 20
-56.2743550858
 30
0.0
 11
261.8884472195
 21
-113.4229229134
 31
0.0
  0
LINE
  5
134
330
1F
100
AcDbEntity
  8
0
  6
Continuous
 62
     7
370
    25
100
AcDbLine
 10
261.8884472195
 20
-107.7071372302
 30
0.0
 11
261.8884472195
 21
-113.4229229134
 31
0.0
  0
LINE
  5
135
330
1F
100
AcDbEntity
  8
0
  6
Continuous
 62
     7
370
    25
100
AcDbLine
 10
261.8884472195
 20
-113.4229229134
 30
0.0
 11
264.7173340806
 21
-115.0560045372
 31
0.0
  0
LINE
  5
136
330
1F
100
AcDbEntity
  8
0
  6
Continuous
 62
     7
370
    25
100
AcDbLine
 10
305.9697739943
 20
-116.0126964626
 30
0.0
 11
300.9107210039
 21
-113.0921673365
 31
0.0
  0
LINE
  5
137
330
1F
100
AcDbEntity
  8
0
  6
Continuous
 62
     7
370
    25
100
AcDbLine
 10
373.0771952146
 20
-154.7529861229
 30
0.0
 11
368.0181422242
 21
-151.8324569967
 31
0.0
  0
LWPOLYLINE
  5
138
330
1F
100
AcDbEntity
  8
0
  6
Continuous
 62
     7
370
    25
100
AcDbPolyline
 90
       33
 70
   128
 43
0.0
 10
335.9332979375
 20
-2.667721746
 10
337.6391051211
 20
-1.7532084932
 10
339.4572478964
 20
-0.9139182682
 10
341.3777961982
 20
-0.1544349831
 10
343.3902606575
 20
0.5210933277
 10
345.4836498914
 20
1.1089771629
 10
347.6465305338
 20
1.6060057049
 10
349.8670896807
 20
2.009464356
 10
352.1331994079
 20
2.317149565
 10
354.4324830101
 20
2.527380862
 10
356.7523825975
 20
2.6390100366
 10
359.0802276831
 20
2.651427409
 10
361.4033043841
 20
2.5645651597
 10
363.7089248613
 20
2.3788977002
 10
365.9844966151
 20
2.0954390819
 10
368.2175912617
 20
1.7157374573
 10
370.3960124125
 20
1.2418666252
 10
372.5078622867
 20
0.6764147036
 10
374.5416066924
 20
0.0224699948
 10
376.4861380231
 20
-0.7163958818
 10
378.3308359229
 20
-1.5361474971
 10
380.0656252916
 20
-2.4323076521
 10
381.6810313111
 20
-3.3999818307
 10
383.1682311941
 20
-4.4338849322
 10
384.5191023704
 20
-5.5283701363
 10
385.7262668502
 20
-6.6774597443
 10
386.7831315197
 20
-7.8748778274
 10
387.6839241505
 20
-9.1140845032
 10
388.4237249256
 20
-10.3883116544
 10
388.9984933098
 20
-11.6905998944
 10
389.4050901174
 20
-13.0138365763
 10
389.6412946578
 20
-14.3507946402
 10
389.7071615449
 20
-15.5261495072
  0
LWPOLYLINE
  5
139
330
1F
100
AcDbEntity
  8
0
  6
Continuous
 62
     7
370
    25
100
AcDbPolyline
 90
       12
 70
   128
 43
0.0
 10
326.7071615449
 20
-15.5261495072
 10
326.7407728386
 20
-14.6863234971
 10
326.9341411925
 20
-13.347073972
 10
327.298311939
 20
-12.0197258019
 10
327.8312961037
 20
-10.7115285021
 10
328.530182712
 20
-9.4296269926
 10
329.3911546875
 20
-8.1810225751
 10
330.4095096999
 20
-6.9725346937
 10
331.5796858472
 20
-5.8107636903
 10
332.8952920332
 20
-4.7020547553
 10
334.349142873
 20
-3.6524632723
 10
335.9332979375
 20
-2.667721746
  0
LWPOLYLINE
  5
13A
330
1F
100
AcDbEntity
  8
0
  6
Continuous
 62
     7
370
    25
100
AcDbPolyline
 90
       21
 70
   128
 43
0.0
 10
393.6335684161
 20
-34.3105691825
 10
393.7197500319
 20
-33.6784153216
 10
393.976172802
 20
-33.0618271867
 10
394.3965227467
 20
-32.4759872241
 10
394.9704494554
 20
-31.935320758
 10
395.6838209477
 20
-31.4531407911
 10
396.51907165
 20
-31.0413201944
 10
397.4556349179
 20
-30.7099993578
 10
398.4704494554
 20
-30.4673365
 10
399.5385271608
 20
-30.3193067857
 10
400.6335684161
 20
-30.2695551979
 10
401.7286096713
 20
-30.3193067857
 10
402.7966873767
 20
-30.4673365
 10
403.8115019142
 20
-30.7099993578
 10
404.7480651821
 20
-31.0413201944
 10
405.5833158844
 20
-31.4531407911
 10
406.2966873767
 20
-31.935320758
 10
406.8706140854
 20
-32.4759872241
 10
407.2909640301
 20
-33.0618271867
 10
407.5473868002
 20
-33.6784153216
 10
407.6335684161
 20
-34.3105691825
  0
ENDSEC
  0
SECTION
  2
OBJECTS
  0
DICTIONARY
  5
C
330
0
100
AcDbDictionary
281
     1
  3
ACAD_GROUP
350
D
  3
ACAD_LAYOUT
350
1A
  3
ACAD_MLINESTYLE
350
17
  3
ACAD_PLOTSETTINGS
350
19
  3
ACAD_PLOTSTYLENAME
350
E
  3
ACAD_SCALELIST
350
47
  3
DWGPROPS
350
13B
  0
DICTIONARY
  5
D
102
{ACAD_REACTORS
330
C
102
}
330
C
100
AcDbDictionary
281
     1
  0
DICTIONARY
  5
1A
102
{ACAD_REACTORS
330
C
102
}
330
C
100
AcDbDictionary
281
     1
  3
Layout1
350
1E
  3
Layout2
350
26
  3
Model
350
22
  0
DICTIONARY
  5
17
102
{ACAD_REACTORS
330
C
102
}
330
C
100
AcDbDictionary
281
     1
  3
Standard
350
18
  0
DICTIONARY
  5
19
102
{ACAD_REACTORS
330
C
102
}
330
C
100
AcDbDictionary
281
     1
  0
ACDBDICTIONARYWDFLT
  5
E
102
{ACAD_REACTORS
330
C
102
}
330
C
100
AcDbDictionary
281
     1
  3
Normal
350
F
100
AcDbDictionaryWithDefault
340
F
  0
DICTIONARY
  5
47
102
{ACAD_REACTORS
330
C
102
}
330
C
100
AcDbDictionary
281
     1
  3
A0
350
48
  3
A1
350
49
  3
A2
350
4A
  3
A3
350
4B
  3
A4
350
4C
  3
A5
350
4D
  3
A6
350
4E
  3
A7
350
4F
  3
A8
350
50
  3
A9
350
51
  3
B0
350
52
  3
B1
350
53
  3
B2
350
54
  3
B3
350
55
  3
B4
350
56
  3
B5
350
57
  3
B6
350
58
  3
B7
350
59
  3
B8
350
5A
  3
B9
350
5B
  3
C0
350
5C
  3
C1
350
5D
  3
C2
350
5E
  3
C3
350
5F
  3
C4
350
60
  3
C5
350
61
  3
C6
350
62
  3
C7
350
63
  3
C8
350
64
  3
C9
350
65
  3
D0
350
66
  3
D1
350
67
  3
D2
350
68
  0
XRECORD
  5
13B
102
{ACAD_REACTORS
330
C
102
}
330
C
100
AcDbXrecord
280
     1
  1
DWGPROPS COOKIE
  2

  3

  4

  6

  7

  8
b.kav
  9

300
=
301
=
302
=
303
=
304
=
305
=
306
=
307
=
308
=
309
=
 40
0.0
 41
2459741.48943713
 42
2459741.489437338
  1

 90
        0
  0
LAYOUT
  5
1E
102
{ACAD_REACTORS
330
1A
102
}
330
1A
100
AcDbPlotSettings
  1

  2
none_device
  4

  6

 40
0.0
 41
0.0
 42
0.0
 43
0.0
 44
0.0
 45
0.0
 46
0.0
 47
0.0
 48
0.0
 49
0.0
140
0.0
141
0.0
142
1.0
143
1.0
 70
   688
 72
     1
 73
     0
 74
     5
  7

 75
    16
147
1.0
148
0.0
149
0.0
100
AcDbLayout
  1
Layout1
 70
     1
 71
     1
 10
0.0
 20
0.0
 11
420.0
 21
297.0
 12
0.0
 22
0.0
 32
0.0
 14
1.0000000000E+20
 24
1.0000000000E+20
 34
1.0000000000E+20
 15
-1.0000000000E+20
 25
-1.0000000000E+20
 35
-1.0000000000E+20
146
0.0
 13
0.0
 23
0.0
 33
0.0
 16
1.0
 26
0.0
 36
0.0
 17
0.0
 27
1.0
 37
0.0
 76
     0
330
1B
  0
LAYOUT
  5
26
102
{ACAD_REACTORS
330
1A
102
}
330
1A
100
AcDbPlotSettings
  1

  2
none_device
  4

  6

 40
0.0
 41
0.0
 42
0.0
 43
0.0
 44
0.0
 45
0.0
 46
0.0
 47
0.0
 48
0.0
 49
0.0
140
0.0
141
0.0
142
1.0
143
1.0
 70
   688
 72
     1
 73
     0
 74
     5
  7

 75
    16
147
1.0
148
0.0
149
0.0
100
AcDbLayout
  1
Layout2
 70
     1
 71
     2
 10
0.0
 20
0.0
 11
0.0
 21
0.0
 12
0.0
 22
0.0
 32
0.0
 14
0.0
 24
0.0
 34
0.0
 15
0.0
 25
0.0
 35
0.0
146
0.0
 13
0.0
 23
0.0
 33
0.0
 16
1.0
 26
0.0
 36
0.0
 17
0.0
 27
1.0
 37
0.0
 76
     0
330
23
  0
LAYOUT
  5
22
102
{ACAD_REACTORS
330
1A
102
}
330
1A
100
AcDbPlotSettings
  1

  2
none_device
  4
Letter_(8.50_x_11.00_Inches)
  6

 40
6.35
 41
6.35
 42
6.35000508
 43
6.35000508
 44
215.9
 45
279.4
 46
0.0
 47
0.0
 48
0.0
 49
0.0
140
0.0
141
0.0
142
1.0
143
1.0
 70
  1712
 72
     1
 73
     0
 74
     0
  7

 75
     0
147
1.0
148
0.0
149
0.0
100
AcDbLayout
  1
Model
 70
     1
 71
     0
 10
0.0
 20
0.0
 11
279.4
 21
215.9
 12
0.0
 22
0.0
 32
0.0
 14
0.0
 24
0.0
 34
0.0
 15
279.4
 25
215.9
 35
0.0
146
0.0
 13
0.0
 23
0.0
 33
0.0
 16
1.0
 26
0.0
 36
0.0
 17
0.0
 27
1.0
 37
0.0
 76
     0
330
1F
331
29
  0
MLINESTYLE
  5
18
102
{ACAD_REACTORS
330
17
102
}
330
17
100
AcDbMlineStyle
  2
Standard
 70
     0
  3

 62
   256
 51
90.0
 52
90.0
 71
     2
 49
0.5
 62
   256
  6
BYLAYER
 49
-0.5
 62
   256
  6
BYLAYER
  0
ACDBPLACEHOLDER
  5
F
102
{ACAD_REACTORS
330
E
102
}
330
E
  0
SCALE
  5
48
102
{ACAD_REACTORS
330
47
102
}
330
47
100
AcDbScale
 70
     0
300
1:1
140
1.0
141
1.0
290
     1
  0
SCALE
  5
49
102
{ACAD_REACTORS
330
47
102
}
330
47
100
AcDbScale
 70
     0
300
1:2
140
1.0
141
2.0
290
     0
  0
SCALE
  5
4A
102
{ACAD_REACTORS
330
47
102
}
330
47
100
AcDbScale
 70
     0
300
1:4
140
1.0
141
4.0
290
     0
  0
SCALE
  5
4B
102
{ACAD_REACTORS
330
47
102
}
330
47
100
AcDbScale
 70
     0
300
1:5
140
1.0
141
5.0
290
     0
  0
SCALE
  5
4C
102
{ACAD_REACTORS
330
47
102
}
330
47
100
AcDbScale
 70
     0
300
1:8
140
1.0
141
8.0
290
     0
  0
SCALE
  5
4D
102
{ACAD_REACTORS
330
47
102
}
330
47
100
AcDbScale
 70
     0
300
1:10
140
1.0
141
10.0
290
     0
  0
SCALE
  5
4E
102
{ACAD_REACTORS
330
47
102
}
330
47
100
AcDbScale
 70
     0
300
1:16
140
1.0
141
16.0
290
     0
  0
SCALE
  5
4F
102
{ACAD_REACTORS
330
47
102
}
330
47
100
AcDbScale
 70
     0
300
1:20
140
1.0
141
20.0
290
     0
  0
SCALE
  5
50
102
{ACAD_REACTORS
330
47
102
}
330
47
100
AcDbScale
 70
     0
300
1:30
140
1.0
141
30.0
290
     0
  0
SCALE
  5
51
102
{ACAD_REACTORS
330
47
102
}
330
47
100
AcDbScale
 70
     0
300
1:40
140
1.0
141
40.0
290
     0
  0
SCALE
  5
52
102
{ACAD_REACTORS
330
47
102
}
330
47
100
AcDbScale
 70
     0
300
1:50
140
1.0
141
50.0
290
     0
  0
SCALE
  5
53
102
{ACAD_REACTORS
330
47
102
}
330
47
100
AcDbScale
 70
     0
300
1:100
140
1.0
141
100.0
290
     0
  0
SCALE
  5
54
102
{ACAD_REACTORS
330
47
102
}
330
47
100
AcDbScale
 70
     0
300
2:1
140
2.0
141
1.0
290
     0
  0
SCALE
  5
55
102
{ACAD_REACTORS
330
47
102
}
330
47
100
AcDbScale
 70
     0
300
4:1
140
4.0
141
1.0
290
     0
  0
SCALE
  5
56
102
{ACAD_REACTORS
330
47
102
}
330
47
100
AcDbScale
 70
     0
300
8:1
140
8.0
141
1.0
290
     0
  0
SCALE
  5
57
102
{ACAD_REACTORS
330
47
102
}
330
47
100
AcDbScale
 70
     0
300
10:1
140
10.0
141
1.0
290
     0
  0
SCALE
  5
58
102
{ACAD_REACTORS
330
47
102
}
330
47
100
AcDbScale
 70
     0
300
100:1
140
100.0
141
1.0
290
     0
  0
SCALE
  5
59
102
{ACAD_REACTORS
330
47
102
}
330
47
100
AcDbScale
 70
     0
300
1/128" = 1'-0"
140
0.0078125
141
12.0
290
     0
  0
SCALE
  5
5A
102
{ACAD_REACTORS
330
47
102
}
330
47
100
AcDbScale
 70
     0
300
1/64" = 1'-0"
140
0.015625
141
12.0
290
     0
  0
SCALE
  5
5B
102
{ACAD_REACTORS
330
47
102
}
330
47
100
AcDbScale
 70
     0
300
1/32" = 1'-0"
140
0.03125
141
12.0
290
     0
  0
SCALE
  5
5C
102
{ACAD_REACTORS
330
47
102
}
330
47
100
AcDbScale
 70
     0
300
1/16" = 1'-0"
140
0.0625
141
12.0
290
     0
  0
SCALE
  5
5D
102
{ACAD_REACTORS
330
47
102
}
330
47
100
AcDbScale
 70
     0
300
3/32" = 1'-0"
140
0.09375
141
12.0
290
     0
  0
SCALE
  5
5E
102
{ACAD_REACTORS
330
47
102
}
330
47
100
AcDbScale
 70
     0
300
1/8" = 1'-0"
140
0.125
141
12.0
290
     0
  0
SCALE
  5
5F
102
{ACAD_REACTORS
330
47
102
}
330
47
100
AcDbScale
 70
     0
300
3/16" = 1'-0"
140
0.1875
141
12.0
290
     0
  0
SCALE
  5
60
102
{ACAD_REACTORS
330
47
102
}
330
47
100
AcDbScale
 70
     0
300
1/4" = 1'-0"
140
0.25
141
12.0
290
     0
  0
SCALE
  5
61
102
{ACAD_REACTORS
330
47
102
}
330
47
100
AcDbScale
 70
     0
300
3/8" = 1'-0"
140
0.375
141
12.0
290
     0
  0
SCALE
  5
62
102
{ACAD_REACTORS
330
47
102
}
330
47
100
AcDbScale
 70
     0
300
1/2" = 1'-0"
140
0.5
141
12.0
290
     0
  0
SCALE
  5
63
102
{ACAD_REACTORS
330
47
102
}
330
47
100
AcDbScale
 70
     0
300
3/4" = 1'-0"
140
0.75
141
12.0
290
     0
  0
SCALE
  5
64
102
{ACAD_REACTORS
330
47
102
}
330
47
100
AcDbScale
 70
     0
300
1" = 1'-0"
140
1.0
141
12.0
290
     0
  0
SCALE
  5
65
102
{ACAD_REACTORS
330
47
102
}
330
47
100
AcDbScale
 70
     0
300
1-1/2" = 1'-0"
140
1.5
141
12.0
290
     0
  0
SCALE
  5
66
102
{ACAD_REACTORS
330
47
102
}
330
47
100
AcDbScale
 70
     0
300
3" = 1'-0"
140
3.0
141
12.0
290
     0
  0
SCALE
  5
67
102
{ACAD_REACTORS
330
47
102
}
330
47
100
AcDbScale
 70
     0
300
6" = 1'-0"
140
6.0
141
12.0
290
     0
  0
SCALE
  5
68
102
{ACAD_REACTORS
330
47
102
}
330
47
100
AcDbScale
 70
     0
300
1'-0" = 1'-0"
140
12.0
141
12.0
290
     0
  0
ENDSEC
  0
EOF
